  0
SECTION
  2
HEADER
  9
$EXTMAX
 10
6421091.07
 20
5579479.54
 30
1000000.00
  9
$EXTMIN
 10
6420767.17
 20
5578857.96
 30
0.00
  9
$LIMMIN
 10
6420767.17
 20
5578857.96
  9
$LIMMAX
 10
6421091.07
 20
5579479.54
  0
ENDSEC
  0
SECTION
2
TABLES
0
TABLE
2
VPORT
70
1
0
VPORT
2
*ACTIVE
70
0
10
0.0
20
0.0
11
1.0
21
1.0
12
6420929.12
22
5579168.75
13
0.0
23
0.0
14
1.0
24
1.0
15
0.0
25
0.0
16
0.0
26
0.0
36
1.0
17
0.0
27
0.0
37
0.0
40
621.58
41
0.52
42
50.0
43
0.0
44
0.0
50
0.0
51
0.0
71
0
72
100
73
1
74
1
75
0
76
0
77
0
78
0
0
ENDTAB
  0
ENDSEC
  0
SECTION
  2
TABLES
  0
TABLE
  2
LAYER
 70
4
  0
LAYER
  2
0
 70
64
 62
1
  6
CONTINUOUS
  0
LAYER
  2
dzialki
 70
64
 62
4
  6
CONTINUOUS
  0
LAYER
  2
korytka_kd
 70
64
 62
7
  6
CONTINUOUS
  0
LAYER
  2
kraweznik
 70
64
 62
36
  6
CONTINUOUS
  0
LAYER
  2
ogrodzenie
 70
64
 62
7
  6
CONTINUOUS
  0
LAYER
  2
opisy
 70
64
 62
7
  6
CONTINUOUS
  0
LAYER
  2
os_profilu
 70
64
 62
7
  6
CONTINUOUS
  0
LAYER
  2
przerywana
 70
64
 62
7
  6
CONTINUOUS
  0
LAYER
  2
sytuacja
 70
64
 62
7
  6
CONTINUOUS
  0
LAYER
  2
zakres_pomiaru
 70
64
 62
7
  6
CONTINUOUS
  0
LAYER
  2
siatka
 70
64
 62
1
  6
CONTINUOUS
  0
ENDTAB
  0
ENDSEC
  0
SECTION
  2
BLOCKS
  0
BLOCK
  8
Warstwa_zerowa
 62
0
  2
OSP
 70
 64
 10
 0
 20
 0
 30
 0
  1
OSP
  0
CIRCLE
  8
Warstwa_zerowa
  6
CONTINUOUS
 62
0
 10
0.00
 20
-0.00
 40
1.30
  0
CIRCLE
  8
Warstwa_zerowa
  6
CONTINUOUS
 62
0
 10
0.00
 20
-0.00
 40
0.10
  0
ENDBLK
  0
BLOCK
  8
Warstwa_zerowa
 62
0
  2
WLM
 70
 64
 10
 0
 20
 0
 30
 0
  1
WLM
  0
POLYLINE
  8
Warstwa_zerowa
  6
CONTINUOUS
 62
0
 70
1
 66
1
  0
VERTEX
  8
Warstwa_zerowa
 10
-0.50
 20
0.50
  0
VERTEX
  8
Warstwa_zerowa
 10
-0.50
 20
-0.50
  0
VERTEX
  8
Warstwa_zerowa
 10
0.50
 20
-0.50
  0
VERTEX
  8
Warstwa_zerowa
 10
0.50
 20
0.50
  0
VERTEX
  8
Warstwa_zerowa
 10
-0.50
 20
0.50
  0
SEQEND
  8
Warstwa_zerowa
  0
ENDBLK
  0
BLOCK
  8
Warstwa_zerowa
 62
0
  2
WLZ
 70
 64
 10
 0
 20
 0
 30
 0
  1
WLZ
  0
CIRCLE
  8
Warstwa_zerowa
  6
CONTINUOUS
 62
0
 10
0.00
 20
-0.00
 40
0.60
  0
ENDBLK
  0
BLOCK
  8
Warstwa_zerowa
 62
0
  2
UAR
 70
 64
 10
 0
 20
 0
 30
 0
  1
UAR
  0
CIRCLE
  8
Warstwa_zerowa
  6
CONTINUOUS
 62
0
 10
0.00
 20
-0.00
 40
0.20
  0
ENDBLK
  0
BLOCK
  8
Warstwa_zerowa
 62
0
  2
LAT
 70
 64
 10
 0
 20
 0
 30
 0
  1
LAT
  0
POLYLINE
  8
Warstwa_zerowa
  6
CONTINUOUS
 62
0
 66
1
  0
VERTEX
  8
Warstwa_zerowa
 10
0.00
 20
2.50
  0
VERTEX
  8
Warstwa_zerowa
 10
0.00
 20
1.50
  0
SEQEND
  8
Warstwa_zerowa
  0
POLYLINE
  8
Warstwa_zerowa
  6
CONTINUOUS
 62
0
 66
1
  0
VERTEX
  8
Warstwa_zerowa
 10
0.00
 20
-1.50
  0
VERTEX
  8
Warstwa_zerowa
 10
0.00
 20
-2.50
  0
SEQEND
  8
Warstwa_zerowa
  0
POLYLINE
  8
Warstwa_zerowa
  6
CONTINUOUS
 62
0
 66
1
  0
VERTEX
  8
Warstwa_zerowa
 10
1.50
 20
-0.00
  0
VERTEX
  8
Warstwa_zerowa
 10
2.50
 20
-0.00
  0
SEQEND
  8
Warstwa_zerowa
  0
POLYLINE
  8
Warstwa_zerowa
  6
CONTINUOUS
 62
0
 66
1
  0
VERTEX
  8
Warstwa_zerowa
 10
-1.50
 20
-0.00
  0
VERTEX
  8
Warstwa_zerowa
 10
-2.50
 20
-0.00
  0
SEQEND
  8
Warstwa_zerowa
  0
ENDBLK
  0
BLOCK
  8
Warstwa_zerowa
 62
0
  2
OSM
 70
 64
 10
 0
 20
 0
 30
 0
  1
OSM
  0
CIRCLE
  8
Warstwa_zerowa
  6
CONTINUOUS
 62
0
 10
0.00
 20
-0.00
 40
0.80
  0
POLYLINE
  8
Warstwa_zerowa
  6
CONTINUOUS
 62
0
 66
1
  0
VERTEX
  8
Warstwa_zerowa
 10
0.00
 20
0.80
  0
VERTEX
  8
Warstwa_zerowa
 10
0.00
 20
1.80
  0
SEQEND
  8
Warstwa_zerowa
  0
ENDBLK
  0
BLOCK
  8
Warstwa_zerowa
 62
0
  2
PLT
 70
 64
 10
 0
 20
 0
 30
 0
  1
PLT
  0
POLYLINE
  8
Warstwa_zerowa
  6
CONTINUOUS
 62
0
 66
1
  0
VERTEX
  8
Warstwa_zerowa
 10
0.00
 20
-0.00
  0
VERTEX
  8
Warstwa_zerowa
 10
10.00
 20
-0.00
  0
VERTEX
  8
Warstwa_zerowa
 10
10.00
 20
-0.00
  0
SEQEND
  8
Warstwa_zerowa
  0
POLYLINE
  8
Warstwa_zerowa
  6
CONTINUOUS
 62
0
 66
1
  0
VERTEX
  8
Warstwa_zerowa
 10
7.00
 20
-0.00
  0
VERTEX
  8
Warstwa_zerowa
 10
5.50
 20
-1.50
  0
SEQEND
  8
Warstwa_zerowa
  0
POLYLINE
  8
Warstwa_zerowa
  6
CONTINUOUS
 62
0
 66
1
  0
VERTEX
  8
Warstwa_zerowa
 10
3.00
 20
1.50
  0
VERTEX
  8
Warstwa_zerowa
 10
4.50
 20
-0.00
  0
SEQEND
  8
Warstwa_zerowa
  0
ENDBLK
  0
BLOCK
  8
Warstwa_zerowa
 62
0
  2
PNN
 70
 64
 10
 0
 20
 0
 30
 0
  1
PNN
  0
POLYLINE
  8
Warstwa_zerowa
  6
CONTINUOUS
 62
0
 66
1
  0
VERTEX
  8
Warstwa_zerowa
 10
1.50
 20
-0.00
  0
VERTEX
  8
Warstwa_zerowa
 10
11.50
 20
-0.00
  0
SEQEND
  8
Warstwa_zerowa
  0
POLYLINE
  8
Warstwa_zerowa
  6
CONTINUOUS
 62
0
 66
1
  0
VERTEX
  8
Warstwa_zerowa
 10
5.00
 20
1.50
  0
VERTEX
  8
Warstwa_zerowa
 10
6.50
 20
-0.00
  0
VERTEX
  8
Warstwa_zerowa
 10
5.00
 20
-1.50
  0
SEQEND
  8
Warstwa_zerowa
  0
ENDBLK
  0
BLOCK
  8
Warstwa_zerowa
 62
0
  2
PSN
 70
 64
 10
 0
 20
 0
 30
 0
  1
PSN
  0
POLYLINE
  8
Warstwa_zerowa
  6
CONTINUOUS
 62
0
 66
1
  0
VERTEX
  8
Warstwa_zerowa
 10
0.00
 20
-0.00
  0
VERTEX
  8
Warstwa_zerowa
 10
10.00
 20
-0.00
  0
SEQEND
  8
Warstwa_zerowa
  0
POLYLINE
  8
Warstwa_zerowa
  6
CONTINUOUS
 62
0
 66
1
  0
VERTEX
  8
Warstwa_zerowa
 10
3.00
 20
0.50
  0
VERTEX
  8
Warstwa_zerowa
 10
3.00
 20
-0.50
  0
SEQEND
  8
Warstwa_zerowa
  0
POLYLINE
  8
Warstwa_zerowa
  6
CONTINUOUS
 62
0
 66
1
  0
VERTEX
  8
Warstwa_zerowa
 10
7.00
 20
-0.00
  0
VERTEX
  8
Warstwa_zerowa
 10
5.60
 20
1.40
  0
SEQEND
  8
Warstwa_zerowa
  0
POLYLINE
  8
Warstwa_zerowa
  6
CONTINUOUS
 62
0
 66
1
  0
VERTEX
  8
Warstwa_zerowa
 10
7.00
 20
-0.00
  0
VERTEX
  8
Warstwa_zerowa
 10
5.60
 20
-1.40
  0
SEQEND
  8
Warstwa_zerowa
  0
ENDBLK
  0
BLOCK
  8
Warstwa_zerowa
 62
0
  2
PWN
 70
 64
 10
 0
 20
 0
 30
 0
  1
PWN
  0
POLYLINE
  8
Warstwa_zerowa
  6
CONTINUOUS
 62
0
 66
1
  0
VERTEX
  8
Warstwa_zerowa
 10
7.00
 20
-0.00
  0
VERTEX
  8
Warstwa_zerowa
 10
5.60
 20
-1.40
  0
SEQEND
  8
Warstwa_zerowa
  0
POLYLINE
  8
Warstwa_zerowa
  6
CONTINUOUS
 62
0
 66
1
  0
VERTEX
  8
Warstwa_zerowa
 10
3.00
 20
1.50
  0
VERTEX
  8
Warstwa_zerowa
 10
4.50
 20
-0.00
  0
SEQEND
  8
Warstwa_zerowa
  0
POLYLINE
  8
Warstwa_zerowa
  6
CONTINUOUS
 62
0
 66
1
  0
VERTEX
  8
Warstwa_zerowa
 10
4.50
 20
-0.00
  0
VERTEX
  8
Warstwa_zerowa
 10
3.10
 20
-1.40
  0
SEQEND
  8
Warstwa_zerowa
  0
POLYLINE
  8
Warstwa_zerowa
  6
CONTINUOUS
 62
0
 66
1
  0
VERTEX
  8
Warstwa_zerowa
 10
0.00
 20
-0.00
  0
VERTEX
  8
Warstwa_zerowa
 10
10.00
 20
-0.00
  0
SEQEND
  8
Warstwa_zerowa
  0
POLYLINE
  8
Warstwa_zerowa
  6
CONTINUOUS
 62
0
 66
1
  0
VERTEX
  8
Warstwa_zerowa
 10
5.50
 20
1.50
  0
VERTEX
  8
Warstwa_zerowa
 10
7.00
 20
-0.00
  0
SEQEND
  8
Warstwa_zerowa
  0
ENDBLK
  0
ENDSEC
  0
SECTION
  2
ENTITIES
  0
POLYLINE
  8
siatka
 40
0.07
 41
0.07
  6
CONTINUOUS
 62
2
 66
1
  0
VERTEX
  8
siatka
 10
6420747.50
 20
5578850.00
  0
VERTEX
  8
siatka
 10
6420752.50
 20
5578850.00
  0
SEQEND
  8
siatka
  0
POLYLINE
  8
siatka
 40
0.07
 41
0.07
  6
CONTINUOUS
 62
2
 66
1
  0
VERTEX
  8
siatka
 10
6420750.00
 20
5578847.50
  0
VERTEX
  8
siatka
 10
6420750.00
 20
5578852.50
  0
SEQEND
  8
siatka
  0
POLYLINE
  8
siatka
 40
0.07
 41
0.07
  6
CONTINUOUS
 62
2
 66
1
  0
VERTEX
  8
siatka
 10
6420797.50
 20
5578850.00
  0
VERTEX
  8
siatka
 10
6420802.50
 20
5578850.00
  0
SEQEND
  8
siatka
  0
POLYLINE
  8
siatka
 40
0.07
 41
0.07
  6
CONTINUOUS
 62
2
 66
1
  0
VERTEX
  8
siatka
 10
6420800.00
 20
5578847.50
  0
VERTEX
  8
siatka
 10
6420800.00
 20
5578852.50
  0
SEQEND
  8
siatka
  0
POLYLINE
  8
siatka
 40
0.07
 41
0.07
  6
CONTINUOUS
 62
2
 66
1
  0
VERTEX
  8
siatka
 10
6420847.50
 20
5578850.00
  0
VERTEX
  8
siatka
 10
6420852.50
 20
5578850.00
  0
SEQEND
  8
siatka
  0
POLYLINE
  8
siatka
 40
0.07
 41
0.07
  6
CONTINUOUS
 62
2
 66
1
  0
VERTEX
  8
siatka
 10
6420850.00
 20
5578847.50
  0
VERTEX
  8
siatka
 10
6420850.00
 20
5578852.50
  0
SEQEND
  8
siatka
  0
POLYLINE
  8
siatka
 40
0.07
 41
0.07
  6
CONTINUOUS
 62
2
 66
1
  0
VERTEX
  8
siatka
 10
6420897.50
 20
5578850.00
  0
VERTEX
  8
siatka
 10
6420902.50
 20
5578850.00
  0
SEQEND
  8
siatka
  0
POLYLINE
  8
siatka
 40
0.07
 41
0.07
  6
CONTINUOUS
 62
2
 66
1
  0
VERTEX
  8
siatka
 10
6420900.00
 20
5578847.50
  0
VERTEX
  8
siatka
 10
6420900.00
 20
5578852.50
  0
SEQEND
  8
siatka
  0
POLYLINE
  8
siatka
 40
0.07
 41
0.07
  6
CONTINUOUS
 62
2
 66
1
  0
VERTEX
  8
siatka
 10
6420947.50
 20
5578850.00
  0
VERTEX
  8
siatka
 10
6420952.50
 20
5578850.00
  0
SEQEND
  8
siatka
  0
POLYLINE
  8
siatka
 40
0.07
 41
0.07
  6
CONTINUOUS
 62
2
 66
1
  0
VERTEX
  8
siatka
 10
6420950.00
 20
5578847.50
  0
VERTEX
  8
siatka
 10
6420950.00
 20
5578852.50
  0
SEQEND
  8
siatka
  0
POLYLINE
  8
siatka
 40
0.07
 41
0.07
  6
CONTINUOUS
 62
2
 66
1
  0
VERTEX
  8
siatka
 10
6420997.50
 20
5578850.00
  0
VERTEX
  8
siatka
 10
6421002.50
 20
5578850.00
  0
SEQEND
  8
siatka
  0
POLYLINE
  8
siatka
 40
0.07
 41
0.07
  6
CONTINUOUS
 62
2
 66
1
  0
VERTEX
  8
siatka
 10
6421000.00
 20
5578847.50
  0
VERTEX
  8
siatka
 10
6421000.00
 20
5578852.50
  0
SEQEND
  8
siatka
  0
POLYLINE
  8
siatka
 40
0.07
 41
0.07
  6
CONTINUOUS
 62
2
 66
1
  0
VERTEX
  8
siatka
 10
6421047.50
 20
5578850.00
  0
VERTEX
  8
siatka
 10
6421052.50
 20
5578850.00
  0
SEQEND
  8
siatka
  0
POLYLINE
  8
siatka
 40
0.07
 41
0.07
  6
CONTINUOUS
 62
2
 66
1
  0
VERTEX
  8
siatka
 10
6421050.00
 20
5578847.50
  0
VERTEX
  8
siatka
 10
6421050.00
 20
5578852.50
  0
SEQEND
  8
siatka
  0
POLYLINE
  8
siatka
 40
0.07
 41
0.07
  6
CONTINUOUS
 62
2
 66
1
  0
VERTEX
  8
siatka
 10
6420747.50
 20
5578900.00
  0
VERTEX
  8
siatka
 10
6420752.50
 20
5578900.00
  0
SEQEND
  8
siatka
  0
POLYLINE
  8
siatka
 40
0.07
 41
0.07
  6
CONTINUOUS
 62
2
 66
1
  0
VERTEX
  8
siatka
 10
6420750.00
 20
5578897.50
  0
VERTEX
  8
siatka
 10
6420750.00
 20
5578902.50
  0
SEQEND
  8
siatka
  0
POLYLINE
  8
siatka
 40
0.07
 41
0.07
  6
CONTINUOUS
 62
2
 66
1
  0
VERTEX
  8
siatka
 10
6420797.50
 20
5578900.00
  0
VERTEX
  8
siatka
 10
6420802.50
 20
5578900.00
  0
SEQEND
  8
siatka
  0
POLYLINE
  8
siatka
 40
0.07
 41
0.07
  6
CONTINUOUS
 62
2
 66
1
  0
VERTEX
  8
siatka
 10
6420800.00
 20
5578897.50
  0
VERTEX
  8
siatka
 10
6420800.00
 20
5578902.50
  0
SEQEND
  8
siatka
  0
POLYLINE
  8
siatka
 40
0.07
 41
0.07
  6
CONTINUOUS
 62
2
 66
1
  0
VERTEX
  8
siatka
 10
6420847.50
 20
5578900.00
  0
VERTEX
  8
siatka
 10
6420852.50
 20
5578900.00
  0
SEQEND
  8
siatka
  0
POLYLINE
  8
siatka
 40
0.07
 41
0.07
  6
CONTINUOUS
 62
2
 66
1
  0
VERTEX
  8
siatka
 10
6420850.00
 20
5578897.50
  0
VERTEX
  8
siatka
 10
6420850.00
 20
5578902.50
  0
SEQEND
  8
siatka
  0
POLYLINE
  8
siatka
 40
0.07
 41
0.07
  6
CONTINUOUS
 62
2
 66
1
  0
VERTEX
  8
siatka
 10
6420897.50
 20
5578900.00
  0
VERTEX
  8
siatka
 10
6420902.50
 20
5578900.00
  0
SEQEND
  8
siatka
  0
POLYLINE
  8
siatka
 40
0.07
 41
0.07
  6
CONTINUOUS
 62
2
 66
1
  0
VERTEX
  8
siatka
 10
6420900.00
 20
5578897.50
  0
VERTEX
  8
siatka
 10
6420900.00
 20
5578902.50
  0
SEQEND
  8
siatka
  0
POLYLINE
  8
siatka
 40
0.07
 41
0.07
  6
CONTINUOUS
 62
2
 66
1
  0
VERTEX
  8
siatka
 10
6420947.50
 20
5578900.00
  0
VERTEX
  8
siatka
 10
6420952.50
 20
5578900.00
  0
SEQEND
  8
siatka
  0
POLYLINE
  8
siatka
 40
0.07
 41
0.07
  6
CONTINUOUS
 62
2
 66
1
  0
VERTEX
  8
siatka
 10
6420950.00
 20
5578897.50
  0
VERTEX
  8
siatka
 10
6420950.00
 20
5578902.50
  0
SEQEND
  8
siatka
  0
POLYLINE
  8
siatka
 40
0.07
 41
0.07
  6
CONTINUOUS
 62
2
 66
1
  0
VERTEX
  8
siatka
 10
6420997.50
 20
5578900.00
  0
VERTEX
  8
siatka
 10
6421002.50
 20
5578900.00
  0
SEQEND
  8
siatka
  0
POLYLINE
  8
siatka
 40
0.07
 41
0.07
  6
CONTINUOUS
 62
2
 66
1
  0
VERTEX
  8
siatka
 10
6421000.00
 20
5578897.50
  0
VERTEX
  8
siatka
 10
6421000.00
 20
5578902.50
  0
SEQEND
  8
siatka
  0
POLYLINE
  8
siatka
 40
0.07
 41
0.07
  6
CONTINUOUS
 62
2
 66
1
  0
VERTEX
  8
siatka
 10
6421047.50
 20
5578900.00
  0
VERTEX
  8
siatka
 10
6421052.50
 20
5578900.00
  0
SEQEND
  8
siatka
  0
POLYLINE
  8
siatka
 40
0.07
 41
0.07
  6
CONTINUOUS
 62
2
 66
1
  0
VERTEX
  8
siatka
 10
6421050.00
 20
5578897.50
  0
VERTEX
  8
siatka
 10
6421050.00
 20
5578902.50
  0
SEQEND
  8
siatka
  0
POLYLINE
  8
siatka
 40
0.07
 41
0.07
  6
CONTINUOUS
 62
2
 66
1
  0
VERTEX
  8
siatka
 10
6420747.50
 20
5578950.00
  0
VERTEX
  8
siatka
 10
6420752.50
 20
5578950.00
  0
SEQEND
  8
siatka
  0
POLYLINE
  8
siatka
 40
0.07
 41
0.07
  6
CONTINUOUS
 62
2
 66
1
  0
VERTEX
  8
siatka
 10
6420750.00
 20
5578947.50
  0
VERTEX
  8
siatka
 10
6420750.00
 20
5578952.50
  0
SEQEND
  8
siatka
  0
POLYLINE
  8
siatka
 40
0.07
 41
0.07
  6
CONTINUOUS
 62
2
 66
1
  0
VERTEX
  8
siatka
 10
6420797.50
 20
5578950.00
  0
VERTEX
  8
siatka
 10
6420802.50
 20
5578950.00
  0
SEQEND
  8
siatka
  0
POLYLINE
  8
siatka
 40
0.07
 41
0.07
  6
CONTINUOUS
 62
2
 66
1
  0
VERTEX
  8
siatka
 10
6420800.00
 20
5578947.50
  0
VERTEX
  8
siatka
 10
6420800.00
 20
5578952.50
  0
SEQEND
  8
siatka
  0
POLYLINE
  8
siatka
 40
0.07
 41
0.07
  6
CONTINUOUS
 62
2
 66
1
  0
VERTEX
  8
siatka
 10
6420847.50
 20
5578950.00
  0
VERTEX
  8
siatka
 10
6420852.50
 20
5578950.00
  0
SEQEND
  8
siatka
  0
POLYLINE
  8
siatka
 40
0.07
 41
0.07
  6
CONTINUOUS
 62
2
 66
1
  0
VERTEX
  8
siatka
 10
6420850.00
 20
5578947.50
  0
VERTEX
  8
siatka
 10
6420850.00
 20
5578952.50
  0
SEQEND
  8
siatka
  0
POLYLINE
  8
siatka
 40
0.07
 41
0.07
  6
CONTINUOUS
 62
2
 66
1
  0
VERTEX
  8
siatka
 10
6420897.50
 20
5578950.00
  0
VERTEX
  8
siatka
 10
6420902.50
 20
5578950.00
  0
SEQEND
  8
siatka
  0
POLYLINE
  8
siatka
 40
0.07
 41
0.07
  6
CONTINUOUS
 62
2
 66
1
  0
VERTEX
  8
siatka
 10
6420900.00
 20
5578947.50
  0
VERTEX
  8
siatka
 10
6420900.00
 20
5578952.50
  0
SEQEND
  8
siatka
  0
POLYLINE
  8
siatka
 40
0.07
 41
0.07
  6
CONTINUOUS
 62
2
 66
1
  0
VERTEX
  8
siatka
 10
6420947.50
 20
5578950.00
  0
VERTEX
  8
siatka
 10
6420952.50
 20
5578950.00
  0
SEQEND
  8
siatka
  0
POLYLINE
  8
siatka
 40
0.07
 41
0.07
  6
CONTINUOUS
 62
2
 66
1
  0
VERTEX
  8
siatka
 10
6420950.00
 20
5578947.50
  0
VERTEX
  8
siatka
 10
6420950.00
 20
5578952.50
  0
SEQEND
  8
siatka
  0
POLYLINE
  8
siatka
 40
0.07
 41
0.07
  6
CONTINUOUS
 62
2
 66
1
  0
VERTEX
  8
siatka
 10
6420997.50
 20
5578950.00
  0
VERTEX
  8
siatka
 10
6421002.50
 20
5578950.00
  0
SEQEND
  8
siatka
  0
POLYLINE
  8
siatka
 40
0.07
 41
0.07
  6
CONTINUOUS
 62
2
 66
1
  0
VERTEX
  8
siatka
 10
6421000.00
 20
5578947.50
  0
VERTEX
  8
siatka
 10
6421000.00
 20
5578952.50
  0
SEQEND
  8
siatka
  0
POLYLINE
  8
siatka
 40
0.07
 41
0.07
  6
CONTINUOUS
 62
2
 66
1
  0
VERTEX
  8
siatka
 10
6421047.50
 20
5578950.00
  0
VERTEX
  8
siatka
 10
6421052.50
 20
5578950.00
  0
SEQEND
  8
siatka
  0
POLYLINE
  8
siatka
 40
0.07
 41
0.07
  6
CONTINUOUS
 62
2
 66
1
  0
VERTEX
  8
siatka
 10
6421050.00
 20
5578947.50
  0
VERTEX
  8
siatka
 10
6421050.00
 20
5578952.50
  0
SEQEND
  8
siatka
  0
POLYLINE
  8
siatka
 40
0.07
 41
0.07
  6
CONTINUOUS
 62
2
 66
1
  0
VERTEX
  8
siatka
 10
6420747.50
 20
5579000.00
  0
VERTEX
  8
siatka
 10
6420752.50
 20
5579000.00
  0
SEQEND
  8
siatka
  0
POLYLINE
  8
siatka
 40
0.07
 41
0.07
  6
CONTINUOUS
 62
2
 66
1
  0
VERTEX
  8
siatka
 10
6420750.00
 20
5578997.50
  0
VERTEX
  8
siatka
 10
6420750.00
 20
5579002.50
  0
SEQEND
  8
siatka
  0
POLYLINE
  8
siatka
 40
0.07
 41
0.07
  6
CONTINUOUS
 62
2
 66
1
  0
VERTEX
  8
siatka
 10
6420797.50
 20
5579000.00
  0
VERTEX
  8
siatka
 10
6420802.50
 20
5579000.00
  0
SEQEND
  8
siatka
  0
POLYLINE
  8
siatka
 40
0.07
 41
0.07
  6
CONTINUOUS
 62
2
 66
1
  0
VERTEX
  8
siatka
 10
6420800.00
 20
5578997.50
  0
VERTEX
  8
siatka
 10
6420800.00
 20
5579002.50
  0
SEQEND
  8
siatka
  0
POLYLINE
  8
siatka
 40
0.07
 41
0.07
  6
CONTINUOUS
 62
2
 66
1
  0
VERTEX
  8
siatka
 10
6420847.50
 20
5579000.00
  0
VERTEX
  8
siatka
 10
6420852.50
 20
5579000.00
  0
SEQEND
  8
siatka
  0
POLYLINE
  8
siatka
 40
0.07
 41
0.07
  6
CONTINUOUS
 62
2
 66
1
  0
VERTEX
  8
siatka
 10
6420850.00
 20
5578997.50
  0
VERTEX
  8
siatka
 10
6420850.00
 20
5579002.50
  0
SEQEND
  8
siatka
  0
POLYLINE
  8
siatka
 40
0.07
 41
0.07
  6
CONTINUOUS
 62
2
 66
1
  0
VERTEX
  8
siatka
 10
6420897.50
 20
5579000.00
  0
VERTEX
  8
siatka
 10
6420902.50
 20
5579000.00
  0
SEQEND
  8
siatka
  0
POLYLINE
  8
siatka
 40
0.07
 41
0.07
  6
CONTINUOUS
 62
2
 66
1
  0
VERTEX
  8
siatka
 10
6420900.00
 20
5578997.50
  0
VERTEX
  8
siatka
 10
6420900.00
 20
5579002.50
  0
SEQEND
  8
siatka
  0
POLYLINE
  8
siatka
 40
0.07
 41
0.07
  6
CONTINUOUS
 62
2
 66
1
  0
VERTEX
  8
siatka
 10
6420947.50
 20
5579000.00
  0
VERTEX
  8
siatka
 10
6420952.50
 20
5579000.00
  0
SEQEND
  8
siatka
  0
POLYLINE
  8
siatka
 40
0.07
 41
0.07
  6
CONTINUOUS
 62
2
 66
1
  0
VERTEX
  8
siatka
 10
6420950.00
 20
5578997.50
  0
VERTEX
  8
siatka
 10
6420950.00
 20
5579002.50
  0
SEQEND
  8
siatka
  0
POLYLINE
  8
siatka
 40
0.07
 41
0.07
  6
CONTINUOUS
 62
2
 66
1
  0
VERTEX
  8
siatka
 10
6420997.50
 20
5579000.00
  0
VERTEX
  8
siatka
 10
6421002.50
 20
5579000.00
  0
SEQEND
  8
siatka
  0
POLYLINE
  8
siatka
 40
0.07
 41
0.07
  6
CONTINUOUS
 62
2
 66
1
  0
VERTEX
  8
siatka
 10
6421000.00
 20
5578997.50
  0
VERTEX
  8
siatka
 10
6421000.00
 20
5579002.50
  0
SEQEND
  8
siatka
  0
POLYLINE
  8
siatka
 40
0.07
 41
0.07
  6
CONTINUOUS
 62
2
 66
1
  0
VERTEX
  8
siatka
 10
6421047.50
 20
5579000.00
  0
VERTEX
  8
siatka
 10
6421052.50
 20
5579000.00
  0
SEQEND
  8
siatka
  0
POLYLINE
  8
siatka
 40
0.07
 41
0.07
  6
CONTINUOUS
 62
2
 66
1
  0
VERTEX
  8
siatka
 10
6421050.00
 20
5578997.50
  0
VERTEX
  8
siatka
 10
6421050.00
 20
5579002.50
  0
SEQEND
  8
siatka
  0
POLYLINE
  8
siatka
 40
0.07
 41
0.07
  6
CONTINUOUS
 62
2
 66
1
  0
VERTEX
  8
siatka
 10
6420747.50
 20
5579050.00
  0
VERTEX
  8
siatka
 10
6420752.50
 20
5579050.00
  0
SEQEND
  8
siatka
  0
POLYLINE
  8
siatka
 40
0.07
 41
0.07
  6
CONTINUOUS
 62
2
 66
1
  0
VERTEX
  8
siatka
 10
6420750.00
 20
5579047.50
  0
VERTEX
  8
siatka
 10
6420750.00
 20
5579052.50
  0
SEQEND
  8
siatka
  0
POLYLINE
  8
siatka
 40
0.07
 41
0.07
  6
CONTINUOUS
 62
2
 66
1
  0
VERTEX
  8
siatka
 10
6420797.50
 20
5579050.00
  0
VERTEX
  8
siatka
 10
6420802.50
 20
5579050.00
  0
SEQEND
  8
siatka
  0
POLYLINE
  8
siatka
 40
0.07
 41
0.07
  6
CONTINUOUS
 62
2
 66
1
  0
VERTEX
  8
siatka
 10
6420800.00
 20
5579047.50
  0
VERTEX
  8
siatka
 10
6420800.00
 20
5579052.50
  0
SEQEND
  8
siatka
  0
POLYLINE
  8
siatka
 40
0.07
 41
0.07
  6
CONTINUOUS
 62
2
 66
1
  0
VERTEX
  8
siatka
 10
6420847.50
 20
5579050.00
  0
VERTEX
  8
siatka
 10
6420852.50
 20
5579050.00
  0
SEQEND
  8
siatka
  0
POLYLINE
  8
siatka
 40
0.07
 41
0.07
  6
CONTINUOUS
 62
2
 66
1
  0
VERTEX
  8
siatka
 10
6420850.00
 20
5579047.50
  0
VERTEX
  8
siatka
 10
6420850.00
 20
5579052.50
  0
SEQEND
  8
siatka
  0
POLYLINE
  8
siatka
 40
0.07
 41
0.07
  6
CONTINUOUS
 62
2
 66
1
  0
VERTEX
  8
siatka
 10
6420897.50
 20
5579050.00
  0
VERTEX
  8
siatka
 10
6420902.50
 20
5579050.00
  0
SEQEND
  8
siatka
  0
POLYLINE
  8
siatka
 40
0.07
 41
0.07
  6
CONTINUOUS
 62
2
 66
1
  0
VERTEX
  8
siatka
 10
6420900.00
 20
5579047.50
  0
VERTEX
  8
siatka
 10
6420900.00
 20
5579052.50
  0
SEQEND
  8
siatka
  0
POLYLINE
  8
siatka
 40
0.07
 41
0.07
  6
CONTINUOUS
 62
2
 66
1
  0
VERTEX
  8
siatka
 10
6420947.50
 20
5579050.00
  0
VERTEX
  8
siatka
 10
6420952.50
 20
5579050.00
  0
SEQEND
  8
siatka
  0
POLYLINE
  8
siatka
 40
0.07
 41
0.07
  6
CONTINUOUS
 62
2
 66
1
  0
VERTEX
  8
siatka
 10
6420950.00
 20
5579047.50
  0
VERTEX
  8
siatka
 10
6420950.00
 20
5579052.50
  0
SEQEND
  8
siatka
  0
POLYLINE
  8
siatka
 40
0.07
 41
0.07
  6
CONTINUOUS
 62
2
 66
1
  0
VERTEX
  8
siatka
 10
6420997.50
 20
5579050.00
  0
VERTEX
  8
siatka
 10
6421002.50
 20
5579050.00
  0
SEQEND
  8
siatka
  0
POLYLINE
  8
siatka
 40
0.07
 41
0.07
  6
CONTINUOUS
 62
2
 66
1
  0
VERTEX
  8
siatka
 10
6421000.00
 20
5579047.50
  0
VERTEX
  8
siatka
 10
6421000.00
 20
5579052.50
  0
SEQEND
  8
siatka
  0
POLYLINE
  8
siatka
 40
0.07
 41
0.07
  6
CONTINUOUS
 62
2
 66
1
  0
VERTEX
  8
siatka
 10
6421047.50
 20
5579050.00
  0
VERTEX
  8
siatka
 10
6421052.50
 20
5579050.00
  0
SEQEND
  8
siatka
  0
POLYLINE
  8
siatka
 40
0.07
 41
0.07
  6
CONTINUOUS
 62
2
 66
1
  0
VERTEX
  8
siatka
 10
6421050.00
 20
5579047.50
  0
VERTEX
  8
siatka
 10
6421050.00
 20
5579052.50
  0
SEQEND
  8
siatka
  0
POLYLINE
  8
siatka
 40
0.07
 41
0.07
  6
CONTINUOUS
 62
2
 66
1
  0
VERTEX
  8
siatka
 10
6420747.50
 20
5579100.00
  0
VERTEX
  8
siatka
 10
6420752.50
 20
5579100.00
  0
SEQEND
  8
siatka
  0
POLYLINE
  8
siatka
 40
0.07
 41
0.07
  6
CONTINUOUS
 62
2
 66
1
  0
VERTEX
  8
siatka
 10
6420750.00
 20
5579097.50
  0
VERTEX
  8
siatka
 10
6420750.00
 20
5579102.50
  0
SEQEND
  8
siatka
  0
POLYLINE
  8
siatka
 40
0.07
 41
0.07
  6
CONTINUOUS
 62
2
 66
1
  0
VERTEX
  8
siatka
 10
6420797.50
 20
5579100.00
  0
VERTEX
  8
siatka
 10
6420802.50
 20
5579100.00
  0
SEQEND
  8
siatka
  0
POLYLINE
  8
siatka
 40
0.07
 41
0.07
  6
CONTINUOUS
 62
2
 66
1
  0
VERTEX
  8
siatka
 10
6420800.00
 20
5579097.50
  0
VERTEX
  8
siatka
 10
6420800.00
 20
5579102.50
  0
SEQEND
  8
siatka
  0
POLYLINE
  8
siatka
 40
0.07
 41
0.07
  6
CONTINUOUS
 62
2
 66
1
  0
VERTEX
  8
siatka
 10
6420847.50
 20
5579100.00
  0
VERTEX
  8
siatka
 10
6420852.50
 20
5579100.00
  0
SEQEND
  8
siatka
  0
POLYLINE
  8
siatka
 40
0.07
 41
0.07
  6
CONTINUOUS
 62
2
 66
1
  0
VERTEX
  8
siatka
 10
6420850.00
 20
5579097.50
  0
VERTEX
  8
siatka
 10
6420850.00
 20
5579102.50
  0
SEQEND
  8
siatka
  0
POLYLINE
  8
siatka
 40
0.07
 41
0.07
  6
CONTINUOUS
 62
2
 66
1
  0
VERTEX
  8
siatka
 10
6420897.50
 20
5579100.00
  0
VERTEX
  8
siatka
 10
6420902.50
 20
5579100.00
  0
SEQEND
  8
siatka
  0
POLYLINE
  8
siatka
 40
0.07
 41
0.07
  6
CONTINUOUS
 62
2
 66
1
  0
VERTEX
  8
siatka
 10
6420900.00
 20
5579097.50
  0
VERTEX
  8
siatka
 10
6420900.00
 20
5579102.50
  0
SEQEND
  8
siatka
  0
POLYLINE
  8
siatka
 40
0.07
 41
0.07
  6
CONTINUOUS
 62
2
 66
1
  0
VERTEX
  8
siatka
 10
6420947.50
 20
5579100.00
  0
VERTEX
  8
siatka
 10
6420952.50
 20
5579100.00
  0
SEQEND
  8
siatka
  0
POLYLINE
  8
siatka
 40
0.07
 41
0.07
  6
CONTINUOUS
 62
2
 66
1
  0
VERTEX
  8
siatka
 10
6420950.00
 20
5579097.50
  0
VERTEX
  8
siatka
 10
6420950.00
 20
5579102.50
  0
SEQEND
  8
siatka
  0
POLYLINE
  8
siatka
 40
0.07
 41
0.07
  6
CONTINUOUS
 62
2
 66
1
  0
VERTEX
  8
siatka
 10
6420997.50
 20
5579100.00
  0
VERTEX
  8
siatka
 10
6421002.50
 20
5579100.00
  0
SEQEND
  8
siatka
  0
POLYLINE
  8
siatka
 40
0.07
 41
0.07
  6
CONTINUOUS
 62
2
 66
1
  0
VERTEX
  8
siatka
 10
6421000.00
 20
5579097.50
  0
VERTEX
  8
siatka
 10
6421000.00
 20
5579102.50
  0
SEQEND
  8
siatka
  0
POLYLINE
  8
siatka
 40
0.07
 41
0.07
  6
CONTINUOUS
 62
2
 66
1
  0
VERTEX
  8
siatka
 10
6421047.50
 20
5579100.00
  0
VERTEX
  8
siatka
 10
6421052.50
 20
5579100.00
  0
SEQEND
  8
siatka
  0
POLYLINE
  8
siatka
 40
0.07
 41
0.07
  6
CONTINUOUS
 62
2
 66
1
  0
VERTEX
  8
siatka
 10
6421050.00
 20
5579097.50
  0
VERTEX
  8
siatka
 10
6421050.00
 20
5579102.50
  0
SEQEND
  8
siatka
  0
POLYLINE
  8
siatka
 40
0.07
 41
0.07
  6
CONTINUOUS
 62
2
 66
1
  0
VERTEX
  8
siatka
 10
6420747.50
 20
5579150.00
  0
VERTEX
  8
siatka
 10
6420752.50
 20
5579150.00
  0
SEQEND
  8
siatka
  0
POLYLINE
  8
siatka
 40
0.07
 41
0.07
  6
CONTINUOUS
 62
2
 66
1
  0
VERTEX
  8
siatka
 10
6420750.00
 20
5579147.50
  0
VERTEX
  8
siatka
 10
6420750.00
 20
5579152.50
  0
SEQEND
  8
siatka
  0
POLYLINE
  8
siatka
 40
0.07
 41
0.07
  6
CONTINUOUS
 62
2
 66
1
  0
VERTEX
  8
siatka
 10
6420797.50
 20
5579150.00
  0
VERTEX
  8
siatka
 10
6420802.50
 20
5579150.00
  0
SEQEND
  8
siatka
  0
POLYLINE
  8
siatka
 40
0.07
 41
0.07
  6
CONTINUOUS
 62
2
 66
1
  0
VERTEX
  8
siatka
 10
6420800.00
 20
5579147.50
  0
VERTEX
  8
siatka
 10
6420800.00
 20
5579152.50
  0
SEQEND
  8
siatka
  0
POLYLINE
  8
siatka
 40
0.07
 41
0.07
  6
CONTINUOUS
 62
2
 66
1
  0
VERTEX
  8
siatka
 10
6420847.50
 20
5579150.00
  0
VERTEX
  8
siatka
 10
6420852.50
 20
5579150.00
  0
SEQEND
  8
siatka
  0
POLYLINE
  8
siatka
 40
0.07
 41
0.07
  6
CONTINUOUS
 62
2
 66
1
  0
VERTEX
  8
siatka
 10
6420850.00
 20
5579147.50
  0
VERTEX
  8
siatka
 10
6420850.00
 20
5579152.50
  0
SEQEND
  8
siatka
  0
POLYLINE
  8
siatka
 40
0.07
 41
0.07
  6
CONTINUOUS
 62
2
 66
1
  0
VERTEX
  8
siatka
 10
6420897.50
 20
5579150.00
  0
VERTEX
  8
siatka
 10
6420902.50
 20
5579150.00
  0
SEQEND
  8
siatka
  0
POLYLINE
  8
siatka
 40
0.07
 41
0.07
  6
CONTINUOUS
 62
2
 66
1
  0
VERTEX
  8
siatka
 10
6420900.00
 20
5579147.50
  0
VERTEX
  8
siatka
 10
6420900.00
 20
5579152.50
  0
SEQEND
  8
siatka
  0
POLYLINE
  8
siatka
 40
0.07
 41
0.07
  6
CONTINUOUS
 62
2
 66
1
  0
VERTEX
  8
siatka
 10
6420947.50
 20
5579150.00
  0
VERTEX
  8
siatka
 10
6420952.50
 20
5579150.00
  0
SEQEND
  8
siatka
  0
POLYLINE
  8
siatka
 40
0.07
 41
0.07
  6
CONTINUOUS
 62
2
 66
1
  0
VERTEX
  8
siatka
 10
6420950.00
 20
5579147.50
  0
VERTEX
  8
siatka
 10
6420950.00
 20
5579152.50
  0
SEQEND
  8
siatka
  0
POLYLINE
  8
siatka
 40
0.07
 41
0.07
  6
CONTINUOUS
 62
2
 66
1
  0
VERTEX
  8
siatka
 10
6420997.50
 20
5579150.00
  0
VERTEX
  8
siatka
 10
6421002.50
 20
5579150.00
  0
SEQEND
  8
siatka
  0
POLYLINE
  8
siatka
 40
0.07
 41
0.07
  6
CONTINUOUS
 62
2
 66
1
  0
VERTEX
  8
siatka
 10
6421000.00
 20
5579147.50
  0
VERTEX
  8
siatka
 10
6421000.00
 20
5579152.50
  0
SEQEND
  8
siatka
  0
POLYLINE
  8
siatka
 40
0.07
 41
0.07
  6
CONTINUOUS
 62
2
 66
1
  0
VERTEX
  8
siatka
 10
6421047.50
 20
5579150.00
  0
VERTEX
  8
siatka
 10
6421052.50
 20
5579150.00
  0
SEQEND
  8
siatka
  0
POLYLINE
  8
siatka
 40
0.07
 41
0.07
  6
CONTINUOUS
 62
2
 66
1
  0
VERTEX
  8
siatka
 10
6421050.00
 20
5579147.50
  0
VERTEX
  8
siatka
 10
6421050.00
 20
5579152.50
  0
SEQEND
  8
siatka
  0
POLYLINE
  8
siatka
 40
0.07
 41
0.07
  6
CONTINUOUS
 62
2
 66
1
  0
VERTEX
  8
siatka
 10
6420747.50
 20
5579200.00
  0
VERTEX
  8
siatka
 10
6420752.50
 20
5579200.00
  0
SEQEND
  8
siatka
  0
POLYLINE
  8
siatka
 40
0.07
 41
0.07
  6
CONTINUOUS
 62
2
 66
1
  0
VERTEX
  8
siatka
 10
6420750.00
 20
5579197.50
  0
VERTEX
  8
siatka
 10
6420750.00
 20
5579202.50
  0
SEQEND
  8
siatka
  0
POLYLINE
  8
siatka
 40
0.07
 41
0.07
  6
CONTINUOUS
 62
2
 66
1
  0
VERTEX
  8
siatka
 10
6420797.50
 20
5579200.00
  0
VERTEX
  8
siatka
 10
6420802.50
 20
5579200.00
  0
SEQEND
  8
siatka
  0
POLYLINE
  8
siatka
 40
0.07
 41
0.07
  6
CONTINUOUS
 62
2
 66
1
  0
VERTEX
  8
siatka
 10
6420800.00
 20
5579197.50
  0
VERTEX
  8
siatka
 10
6420800.00
 20
5579202.50
  0
SEQEND
  8
siatka
  0
POLYLINE
  8
siatka
 40
0.07
 41
0.07
  6
CONTINUOUS
 62
2
 66
1
  0
VERTEX
  8
siatka
 10
6420847.50
 20
5579200.00
  0
VERTEX
  8
siatka
 10
6420852.50
 20
5579200.00
  0
SEQEND
  8
siatka
  0
POLYLINE
  8
siatka
 40
0.07
 41
0.07
  6
CONTINUOUS
 62
2
 66
1
  0
VERTEX
  8
siatka
 10
6420850.00
 20
5579197.50
  0
VERTEX
  8
siatka
 10
6420850.00
 20
5579202.50
  0
SEQEND
  8
siatka
  0
POLYLINE
  8
siatka
 40
0.07
 41
0.07
  6
CONTINUOUS
 62
2
 66
1
  0
VERTEX
  8
siatka
 10
6420897.50
 20
5579200.00
  0
VERTEX
  8
siatka
 10
6420902.50
 20
5579200.00
  0
SEQEND
  8
siatka
  0
POLYLINE
  8
siatka
 40
0.07
 41
0.07
  6
CONTINUOUS
 62
2
 66
1
  0
VERTEX
  8
siatka
 10
6420900.00
 20
5579197.50
  0
VERTEX
  8
siatka
 10
6420900.00
 20
5579202.50
  0
SEQEND
  8
siatka
  0
POLYLINE
  8
siatka
 40
0.07
 41
0.07
  6
CONTINUOUS
 62
2
 66
1
  0
VERTEX
  8
siatka
 10
6420947.50
 20
5579200.00
  0
VERTEX
  8
siatka
 10
6420952.50
 20
5579200.00
  0
SEQEND
  8
siatka
  0
POLYLINE
  8
siatka
 40
0.07
 41
0.07
  6
CONTINUOUS
 62
2
 66
1
  0
VERTEX
  8
siatka
 10
6420950.00
 20
5579197.50
  0
VERTEX
  8
siatka
 10
6420950.00
 20
5579202.50
  0
SEQEND
  8
siatka
  0
POLYLINE
  8
siatka
 40
0.07
 41
0.07
  6
CONTINUOUS
 62
2
 66
1
  0
VERTEX
  8
siatka
 10
6420997.50
 20
5579200.00
  0
VERTEX
  8
siatka
 10
6421002.50
 20
5579200.00
  0
SEQEND
  8
siatka
  0
POLYLINE
  8
siatka
 40
0.07
 41
0.07
  6
CONTINUOUS
 62
2
 66
1
  0
VERTEX
  8
siatka
 10
6421000.00
 20
5579197.50
  0
VERTEX
  8
siatka
 10
6421000.00
 20
5579202.50
  0
SEQEND
  8
siatka
  0
POLYLINE
  8
siatka
 40
0.07
 41
0.07
  6
CONTINUOUS
 62
2
 66
1
  0
VERTEX
  8
siatka
 10
6421047.50
 20
5579200.00
  0
VERTEX
  8
siatka
 10
6421052.50
 20
5579200.00
  0
SEQEND
  8
siatka
  0
POLYLINE
  8
siatka
 40
0.07
 41
0.07
  6
CONTINUOUS
 62
2
 66
1
  0
VERTEX
  8
siatka
 10
6421050.00
 20
5579197.50
  0
VERTEX
  8
siatka
 10
6421050.00
 20
5579202.50
  0
SEQEND
  8
siatka
  0
POLYLINE
  8
siatka
 40
0.07
 41
0.07
  6
CONTINUOUS
 62
2
 66
1
  0
VERTEX
  8
siatka
 10
6420747.50
 20
5579250.00
  0
VERTEX
  8
siatka
 10
6420752.50
 20
5579250.00
  0
SEQEND
  8
siatka
  0
POLYLINE
  8
siatka
 40
0.07
 41
0.07
  6
CONTINUOUS
 62
2
 66
1
  0
VERTEX
  8
siatka
 10
6420750.00
 20
5579247.50
  0
VERTEX
  8
siatka
 10
6420750.00
 20
5579252.50
  0
SEQEND
  8
siatka
  0
POLYLINE
  8
siatka
 40
0.07
 41
0.07
  6
CONTINUOUS
 62
2
 66
1
  0
VERTEX
  8
siatka
 10
6420797.50
 20
5579250.00
  0
VERTEX
  8
siatka
 10
6420802.50
 20
5579250.00
  0
SEQEND
  8
siatka
  0
POLYLINE
  8
siatka
 40
0.07
 41
0.07
  6
CONTINUOUS
 62
2
 66
1
  0
VERTEX
  8
siatka
 10
6420800.00
 20
5579247.50
  0
VERTEX
  8
siatka
 10
6420800.00
 20
5579252.50
  0
SEQEND
  8
siatka
  0
POLYLINE
  8
siatka
 40
0.07
 41
0.07
  6
CONTINUOUS
 62
2
 66
1
  0
VERTEX
  8
siatka
 10
6420847.50
 20
5579250.00
  0
VERTEX
  8
siatka
 10
6420852.50
 20
5579250.00
  0
SEQEND
  8
siatka
  0
POLYLINE
  8
siatka
 40
0.07
 41
0.07
  6
CONTINUOUS
 62
2
 66
1
  0
VERTEX
  8
siatka
 10
6420850.00
 20
5579247.50
  0
VERTEX
  8
siatka
 10
6420850.00
 20
5579252.50
  0
SEQEND
  8
siatka
  0
POLYLINE
  8
siatka
 40
0.07
 41
0.07
  6
CONTINUOUS
 62
2
 66
1
  0
VERTEX
  8
siatka
 10
6420897.50
 20
5579250.00
  0
VERTEX
  8
siatka
 10
6420902.50
 20
5579250.00
  0
SEQEND
  8
siatka
  0
POLYLINE
  8
siatka
 40
0.07
 41
0.07
  6
CONTINUOUS
 62
2
 66
1
  0
VERTEX
  8
siatka
 10
6420900.00
 20
5579247.50
  0
VERTEX
  8
siatka
 10
6420900.00
 20
5579252.50
  0
SEQEND
  8
siatka
  0
POLYLINE
  8
siatka
 40
0.07
 41
0.07
  6
CONTINUOUS
 62
2
 66
1
  0
VERTEX
  8
siatka
 10
6420947.50
 20
5579250.00
  0
VERTEX
  8
siatka
 10
6420952.50
 20
5579250.00
  0
SEQEND
  8
siatka
  0
POLYLINE
  8
siatka
 40
0.07
 41
0.07
  6
CONTINUOUS
 62
2
 66
1
  0
VERTEX
  8
siatka
 10
6420950.00
 20
5579247.50
  0
VERTEX
  8
siatka
 10
6420950.00
 20
5579252.50
  0
SEQEND
  8
siatka
  0
POLYLINE
  8
siatka
 40
0.07
 41
0.07
  6
CONTINUOUS
 62
2
 66
1
  0
VERTEX
  8
siatka
 10
6420997.50
 20
5579250.00
  0
VERTEX
  8
siatka
 10
6421002.50
 20
5579250.00
  0
SEQEND
  8
siatka
  0
POLYLINE
  8
siatka
 40
0.07
 41
0.07
  6
CONTINUOUS
 62
2
 66
1
  0
VERTEX
  8
siatka
 10
6421000.00
 20
5579247.50
  0
VERTEX
  8
siatka
 10
6421000.00
 20
5579252.50
  0
SEQEND
  8
siatka
  0
POLYLINE
  8
siatka
 40
0.07
 41
0.07
  6
CONTINUOUS
 62
2
 66
1
  0
VERTEX
  8
siatka
 10
6421047.50
 20
5579250.00
  0
VERTEX
  8
siatka
 10
6421052.50
 20
5579250.00
  0
SEQEND
  8
siatka
  0
POLYLINE
  8
siatka
 40
0.07
 41
0.07
  6
CONTINUOUS
 62
2
 66
1
  0
VERTEX
  8
siatka
 10
6421050.00
 20
5579247.50
  0
VERTEX
  8
siatka
 10
6421050.00
 20
5579252.50
  0
SEQEND
  8
siatka
  0
POLYLINE
  8
siatka
 40
0.07
 41
0.07
  6
CONTINUOUS
 62
2
 66
1
  0
VERTEX
  8
siatka
 10
6420747.50
 20
5579300.00
  0
VERTEX
  8
siatka
 10
6420752.50
 20
5579300.00
  0
SEQEND
  8
siatka
  0
POLYLINE
  8
siatka
 40
0.07
 41
0.07
  6
CONTINUOUS
 62
2
 66
1
  0
VERTEX
  8
siatka
 10
6420750.00
 20
5579297.50
  0
VERTEX
  8
siatka
 10
6420750.00
 20
5579302.50
  0
SEQEND
  8
siatka
  0
POLYLINE
  8
siatka
 40
0.07
 41
0.07
  6
CONTINUOUS
 62
2
 66
1
  0
VERTEX
  8
siatka
 10
6420797.50
 20
5579300.00
  0
VERTEX
  8
siatka
 10
6420802.50
 20
5579300.00
  0
SEQEND
  8
siatka
  0
POLYLINE
  8
siatka
 40
0.07
 41
0.07
  6
CONTINUOUS
 62
2
 66
1
  0
VERTEX
  8
siatka
 10
6420800.00
 20
5579297.50
  0
VERTEX
  8
siatka
 10
6420800.00
 20
5579302.50
  0
SEQEND
  8
siatka
  0
POLYLINE
  8
siatka
 40
0.07
 41
0.07
  6
CONTINUOUS
 62
2
 66
1
  0
VERTEX
  8
siatka
 10
6420847.50
 20
5579300.00
  0
VERTEX
  8
siatka
 10
6420852.50
 20
5579300.00
  0
SEQEND
  8
siatka
  0
POLYLINE
  8
siatka
 40
0.07
 41
0.07
  6
CONTINUOUS
 62
2
 66
1
  0
VERTEX
  8
siatka
 10
6420850.00
 20
5579297.50
  0
VERTEX
  8
siatka
 10
6420850.00
 20
5579302.50
  0
SEQEND
  8
siatka
  0
POLYLINE
  8
siatka
 40
0.07
 41
0.07
  6
CONTINUOUS
 62
2
 66
1
  0
VERTEX
  8
siatka
 10
6420897.50
 20
5579300.00
  0
VERTEX
  8
siatka
 10
6420902.50
 20
5579300.00
  0
SEQEND
  8
siatka
  0
POLYLINE
  8
siatka
 40
0.07
 41
0.07
  6
CONTINUOUS
 62
2
 66
1
  0
VERTEX
  8
siatka
 10
6420900.00
 20
5579297.50
  0
VERTEX
  8
siatka
 10
6420900.00
 20
5579302.50
  0
SEQEND
  8
siatka
  0
POLYLINE
  8
siatka
 40
0.07
 41
0.07
  6
CONTINUOUS
 62
2
 66
1
  0
VERTEX
  8
siatka
 10
6420947.50
 20
5579300.00
  0
VERTEX
  8
siatka
 10
6420952.50
 20
5579300.00
  0
SEQEND
  8
siatka
  0
POLYLINE
  8
siatka
 40
0.07
 41
0.07
  6
CONTINUOUS
 62
2
 66
1
  0
VERTEX
  8
siatka
 10
6420950.00
 20
5579297.50
  0
VERTEX
  8
siatka
 10
6420950.00
 20
5579302.50
  0
SEQEND
  8
siatka
  0
POLYLINE
  8
siatka
 40
0.07
 41
0.07
  6
CONTINUOUS
 62
2
 66
1
  0
VERTEX
  8
siatka
 10
6420997.50
 20
5579300.00
  0
VERTEX
  8
siatka
 10
6421002.50
 20
5579300.00
  0
SEQEND
  8
siatka
  0
POLYLINE
  8
siatka
 40
0.07
 41
0.07
  6
CONTINUOUS
 62
2
 66
1
  0
VERTEX
  8
siatka
 10
6421000.00
 20
5579297.50
  0
VERTEX
  8
siatka
 10
6421000.00
 20
5579302.50
  0
SEQEND
  8
siatka
  0
POLYLINE
  8
siatka
 40
0.07
 41
0.07
  6
CONTINUOUS
 62
2
 66
1
  0
VERTEX
  8
siatka
 10
6421047.50
 20
5579300.00
  0
VERTEX
  8
siatka
 10
6421052.50
 20
5579300.00
  0
SEQEND
  8
siatka
  0
POLYLINE
  8
siatka
 40
0.07
 41
0.07
  6
CONTINUOUS
 62
2
 66
1
  0
VERTEX
  8
siatka
 10
6421050.00
 20
5579297.50
  0
VERTEX
  8
siatka
 10
6421050.00
 20
5579302.50
  0
SEQEND
  8
siatka
  0
POLYLINE
  8
siatka
 40
0.07
 41
0.07
  6
CONTINUOUS
 62
2
 66
1
  0
VERTEX
  8
siatka
 10
6420747.50
 20
5579350.00
  0
VERTEX
  8
siatka
 10
6420752.50
 20
5579350.00
  0
SEQEND
  8
siatka
  0
POLYLINE
  8
siatka
 40
0.07
 41
0.07
  6
CONTINUOUS
 62
2
 66
1
  0
VERTEX
  8
siatka
 10
6420750.00
 20
5579347.50
  0
VERTEX
  8
siatka
 10
6420750.00
 20
5579352.50
  0
SEQEND
  8
siatka
  0
POLYLINE
  8
siatka
 40
0.07
 41
0.07
  6
CONTINUOUS
 62
2
 66
1
  0
VERTEX
  8
siatka
 10
6420797.50
 20
5579350.00
  0
VERTEX
  8
siatka
 10
6420802.50
 20
5579350.00
  0
SEQEND
  8
siatka
  0
POLYLINE
  8
siatka
 40
0.07
 41
0.07
  6
CONTINUOUS
 62
2
 66
1
  0
VERTEX
  8
siatka
 10
6420800.00
 20
5579347.50
  0
VERTEX
  8
siatka
 10
6420800.00
 20
5579352.50
  0
SEQEND
  8
siatka
  0
POLYLINE
  8
siatka
 40
0.07
 41
0.07
  6
CONTINUOUS
 62
2
 66
1
  0
VERTEX
  8
siatka
 10
6420847.50
 20
5579350.00
  0
VERTEX
  8
siatka
 10
6420852.50
 20
5579350.00
  0
SEQEND
  8
siatka
  0
POLYLINE
  8
siatka
 40
0.07
 41
0.07
  6
CONTINUOUS
 62
2
 66
1
  0
VERTEX
  8
siatka
 10
6420850.00
 20
5579347.50
  0
VERTEX
  8
siatka
 10
6420850.00
 20
5579352.50
  0
SEQEND
  8
siatka
  0
POLYLINE
  8
siatka
 40
0.07
 41
0.07
  6
CONTINUOUS
 62
2
 66
1
  0
VERTEX
  8
siatka
 10
6420897.50
 20
5579350.00
  0
VERTEX
  8
siatka
 10
6420902.50
 20
5579350.00
  0
SEQEND
  8
siatka
  0
POLYLINE
  8
siatka
 40
0.07
 41
0.07
  6
CONTINUOUS
 62
2
 66
1
  0
VERTEX
  8
siatka
 10
6420900.00
 20
5579347.50
  0
VERTEX
  8
siatka
 10
6420900.00
 20
5579352.50
  0
SEQEND
  8
siatka
  0
POLYLINE
  8
siatka
 40
0.07
 41
0.07
  6
CONTINUOUS
 62
2
 66
1
  0
VERTEX
  8
siatka
 10
6420947.50
 20
5579350.00
  0
VERTEX
  8
siatka
 10
6420952.50
 20
5579350.00
  0
SEQEND
  8
siatka
  0
POLYLINE
  8
siatka
 40
0.07
 41
0.07
  6
CONTINUOUS
 62
2
 66
1
  0
VERTEX
  8
siatka
 10
6420950.00
 20
5579347.50
  0
VERTEX
  8
siatka
 10
6420950.00
 20
5579352.50
  0
SEQEND
  8
siatka
  0
POLYLINE
  8
siatka
 40
0.07
 41
0.07
  6
CONTINUOUS
 62
2
 66
1
  0
VERTEX
  8
siatka
 10
6420997.50
 20
5579350.00
  0
VERTEX
  8
siatka
 10
6421002.50
 20
5579350.00
  0
SEQEND
  8
siatka
  0
POLYLINE
  8
siatka
 40
0.07
 41
0.07
  6
CONTINUOUS
 62
2
 66
1
  0
VERTEX
  8
siatka
 10
6421000.00
 20
5579347.50
  0
VERTEX
  8
siatka
 10
6421000.00
 20
5579352.50
  0
SEQEND
  8
siatka
  0
POLYLINE
  8
siatka
 40
0.07
 41
0.07
  6
CONTINUOUS
 62
2
 66
1
  0
VERTEX
  8
siatka
 10
6421047.50
 20
5579350.00
  0
VERTEX
  8
siatka
 10
6421052.50
 20
5579350.00
  0
SEQEND
  8
siatka
  0
POLYLINE
  8
siatka
 40
0.07
 41
0.07
  6
CONTINUOUS
 62
2
 66
1
  0
VERTEX
  8
siatka
 10
6421050.00
 20
5579347.50
  0
VERTEX
  8
siatka
 10
6421050.00
 20
5579352.50
  0
SEQEND
  8
siatka
  0
POLYLINE
  8
siatka
 40
0.07
 41
0.07
  6
CONTINUOUS
 62
2
 66
1
  0
VERTEX
  8
siatka
 10
6420747.50
 20
5579400.00
  0
VERTEX
  8
siatka
 10
6420752.50
 20
5579400.00
  0
SEQEND
  8
siatka
  0
POLYLINE
  8
siatka
 40
0.07
 41
0.07
  6
CONTINUOUS
 62
2
 66
1
  0
VERTEX
  8
siatka
 10
6420750.00
 20
5579397.50
  0
VERTEX
  8
siatka
 10
6420750.00
 20
5579402.50
  0
SEQEND
  8
siatka
  0
POLYLINE
  8
siatka
 40
0.07
 41
0.07
  6
CONTINUOUS
 62
2
 66
1
  0
VERTEX
  8
siatka
 10
6420797.50
 20
5579400.00
  0
VERTEX
  8
siatka
 10
6420802.50
 20
5579400.00
  0
SEQEND
  8
siatka
  0
POLYLINE
  8
siatka
 40
0.07
 41
0.07
  6
CONTINUOUS
 62
2
 66
1
  0
VERTEX
  8
siatka
 10
6420800.00
 20
5579397.50
  0
VERTEX
  8
siatka
 10
6420800.00
 20
5579402.50
  0
SEQEND
  8
siatka
  0
POLYLINE
  8
siatka
 40
0.07
 41
0.07
  6
CONTINUOUS
 62
2
 66
1
  0
VERTEX
  8
siatka
 10
6420847.50
 20
5579400.00
  0
VERTEX
  8
siatka
 10
6420852.50
 20
5579400.00
  0
SEQEND
  8
siatka
  0
POLYLINE
  8
siatka
 40
0.07
 41
0.07
  6
CONTINUOUS
 62
2
 66
1
  0
VERTEX
  8
siatka
 10
6420850.00
 20
5579397.50
  0
VERTEX
  8
siatka
 10
6420850.00
 20
5579402.50
  0
SEQEND
  8
siatka
  0
POLYLINE
  8
siatka
 40
0.07
 41
0.07
  6
CONTINUOUS
 62
2
 66
1
  0
VERTEX
  8
siatka
 10
6420897.50
 20
5579400.00
  0
VERTEX
  8
siatka
 10
6420902.50
 20
5579400.00
  0
SEQEND
  8
siatka
  0
POLYLINE
  8
siatka
 40
0.07
 41
0.07
  6
CONTINUOUS
 62
2
 66
1
  0
VERTEX
  8
siatka
 10
6420900.00
 20
5579397.50
  0
VERTEX
  8
siatka
 10
6420900.00
 20
5579402.50
  0
SEQEND
  8
siatka
  0
POLYLINE
  8
siatka
 40
0.07
 41
0.07
  6
CONTINUOUS
 62
2
 66
1
  0
VERTEX
  8
siatka
 10
6420947.50
 20
5579400.00
  0
VERTEX
  8
siatka
 10
6420952.50
 20
5579400.00
  0
SEQEND
  8
siatka
  0
POLYLINE
  8
siatka
 40
0.07
 41
0.07
  6
CONTINUOUS
 62
2
 66
1
  0
VERTEX
  8
siatka
 10
6420950.00
 20
5579397.50
  0
VERTEX
  8
siatka
 10
6420950.00
 20
5579402.50
  0
SEQEND
  8
siatka
  0
POLYLINE
  8
siatka
 40
0.07
 41
0.07
  6
CONTINUOUS
 62
2
 66
1
  0
VERTEX
  8
siatka
 10
6420997.50
 20
5579400.00
  0
VERTEX
  8
siatka
 10
6421002.50
 20
5579400.00
  0
SEQEND
  8
siatka
  0
POLYLINE
  8
siatka
 40
0.07
 41
0.07
  6
CONTINUOUS
 62
2
 66
1
  0
VERTEX
  8
siatka
 10
6421000.00
 20
5579397.50
  0
VERTEX
  8
siatka
 10
6421000.00
 20
5579402.50
  0
SEQEND
  8
siatka
  0
POLYLINE
  8
siatka
 40
0.07
 41
0.07
  6
CONTINUOUS
 62
2
 66
1
  0
VERTEX
  8
siatka
 10
6421047.50
 20
5579400.00
  0
VERTEX
  8
siatka
 10
6421052.50
 20
5579400.00
  0
SEQEND
  8
siatka
  0
POLYLINE
  8
siatka
 40
0.07
 41
0.07
  6
CONTINUOUS
 62
2
 66
1
  0
VERTEX
  8
siatka
 10
6421050.00
 20
5579397.50
  0
VERTEX
  8
siatka
 10
6421050.00
 20
5579402.50
  0
SEQEND
  8
siatka
  0
POLYLINE
  8
siatka
 40
0.07
 41
0.07
  6
CONTINUOUS
 62
2
 66
1
  0
VERTEX
  8
siatka
 10
6420747.50
 20
5579450.00
  0
VERTEX
  8
siatka
 10
6420752.50
 20
5579450.00
  0
SEQEND
  8
siatka
  0
POLYLINE
  8
siatka
 40
0.07
 41
0.07
  6
CONTINUOUS
 62
2
 66
1
  0
VERTEX
  8
siatka
 10
6420750.00
 20
5579447.50
  0
VERTEX
  8
siatka
 10
6420750.00
 20
5579452.50
  0
SEQEND
  8
siatka
  0
POLYLINE
  8
siatka
 40
0.07
 41
0.07
  6
CONTINUOUS
 62
2
 66
1
  0
VERTEX
  8
siatka
 10
6420797.50
 20
5579450.00
  0
VERTEX
  8
siatka
 10
6420802.50
 20
5579450.00
  0
SEQEND
  8
siatka
  0
POLYLINE
  8
siatka
 40
0.07
 41
0.07
  6
CONTINUOUS
 62
2
 66
1
  0
VERTEX
  8
siatka
 10
6420800.00
 20
5579447.50
  0
VERTEX
  8
siatka
 10
6420800.00
 20
5579452.50
  0
SEQEND
  8
siatka
  0
POLYLINE
  8
siatka
 40
0.07
 41
0.07
  6
CONTINUOUS
 62
2
 66
1
  0
VERTEX
  8
siatka
 10
6420847.50
 20
5579450.00
  0
VERTEX
  8
siatka
 10
6420852.50
 20
5579450.00
  0
SEQEND
  8
siatka
  0
POLYLINE
  8
siatka
 40
0.07
 41
0.07
  6
CONTINUOUS
 62
2
 66
1
  0
VERTEX
  8
siatka
 10
6420850.00
 20
5579447.50
  0
VERTEX
  8
siatka
 10
6420850.00
 20
5579452.50
  0
SEQEND
  8
siatka
  0
POLYLINE
  8
siatka
 40
0.07
 41
0.07
  6
CONTINUOUS
 62
2
 66
1
  0
VERTEX
  8
siatka
 10
6420897.50
 20
5579450.00
  0
VERTEX
  8
siatka
 10
6420902.50
 20
5579450.00
  0
SEQEND
  8
siatka
  0
POLYLINE
  8
siatka
 40
0.07
 41
0.07
  6
CONTINUOUS
 62
2
 66
1
  0
VERTEX
  8
siatka
 10
6420900.00
 20
5579447.50
  0
VERTEX
  8
siatka
 10
6420900.00
 20
5579452.50
  0
SEQEND
  8
siatka
  0
POLYLINE
  8
siatka
 40
0.07
 41
0.07
  6
CONTINUOUS
 62
2
 66
1
  0
VERTEX
  8
siatka
 10
6420947.50
 20
5579450.00
  0
VERTEX
  8
siatka
 10
6420952.50
 20
5579450.00
  0
SEQEND
  8
siatka
  0
POLYLINE
  8
siatka
 40
0.07
 41
0.07
  6
CONTINUOUS
 62
2
 66
1
  0
VERTEX
  8
siatka
 10
6420950.00
 20
5579447.50
  0
VERTEX
  8
siatka
 10
6420950.00
 20
5579452.50
  0
SEQEND
  8
siatka
  0
POLYLINE
  8
siatka
 40
0.07
 41
0.07
  6
CONTINUOUS
 62
2
 66
1
  0
VERTEX
  8
siatka
 10
6420997.50
 20
5579450.00
  0
VERTEX
  8
siatka
 10
6421002.50
 20
5579450.00
  0
SEQEND
  8
siatka
  0
POLYLINE
  8
siatka
 40
0.07
 41
0.07
  6
CONTINUOUS
 62
2
 66
1
  0
VERTEX
  8
siatka
 10
6421000.00
 20
5579447.50
  0
VERTEX
  8
siatka
 10
6421000.00
 20
5579452.50
  0
SEQEND
  8
siatka
  0
POLYLINE
  8
siatka
 40
0.07
 41
0.07
  6
CONTINUOUS
 62
2
 66
1
  0
VERTEX
  8
siatka
 10
6421047.50
 20
5579450.00
  0
VERTEX
  8
siatka
 10
6421052.50
 20
5579450.00
  0
SEQEND
  8
siatka
  0
POLYLINE
  8
siatka
 40
0.07
 41
0.07
  6
CONTINUOUS
 62
2
 66
1
  0
VERTEX
  8
siatka
 10
6421050.00
 20
5579447.50
  0
VERTEX
  8
siatka
 10
6421050.00
 20
5579452.50
  0
SEQEND
  8
siatka
  0
POINT
  8
0
 62
7
 10
6420849.07
 20
5579035.72
 30
448.41
  0
INSERT
  8
0
 62
7
  6
CONTINUOUS
  2
OSP
 10
6420849.07
 20
5579035.72
 50
0.00
 41
0.50
 42
0.50
 43
0.50
  0
POINT
  8
0
 62
7
 10
6420918.33
 20
5578920.67
 30
457.40
  0
INSERT
  8
0
 62
7
  6
CONTINUOUS
  2
OSP
 10
6420918.33
 20
5578920.67
 50
0.00
 41
0.50
 42
0.50
 43
0.50
  0
POINT
  8
0
 62
7
 10
6420992.05
 20
5578874.38
 30
467.00
  0
INSERT
  8
0
 62
7
  6
CONTINUOUS
  2
OSP
 10
6420992.05
 20
5578874.38
 50
0.00
 41
0.50
 42
0.50
 43
0.50
  0
POINT
  8
0
 62
7
 10
6420783.41
 20
5579239.97
 30
450.89
  0
INSERT
  8
0
 62
7
  6
CONTINUOUS
  2
OSP
 10
6420783.41
 20
5579239.97
 50
0.00
 41
0.50
 42
0.50
 43
0.50
  0
POINT
  8
0
 62
7
 10
6420875.44
 20
5579479.54
 30
460.37
  0
INSERT
  8
0
 62
7
  6
CONTINUOUS
  2
OSP
 10
6420875.44
 20
5579479.54
 50
0.00
 41
0.50
 42
0.50
 43
0.50
  0
POINT
  8
0
 62
7
 10
6420899.64
 20
5578964.58
 30
454.62
  0
POINT
  8
0
 62
7
 10
6420909.12
 20
5579065.97
 30
454.14
  0
POINT
  8
0
 62
7
 10
6420992.74
 20
5579148.41
 30
463.35
  0
POINT
  8
0
 62
7
 10
6421031.34
 20
5579228.27
 30
462.97
  0
POINT
  8
0
 62
7
 10
6420977.37
 20
5579196.95
 30
459.29
  0
POINT
  8
0
 62
7
 10
6420933.09
 20
5579223.15
 30
453.25
  0
POINT
  8
0
 62
7
 10
6420867.33
 20
5579192.32
 30
451.05
  0
POINT
  8
0
 62
7
 10
6420767.17
 20
5579185.31
 30
450.24
  0
POINT
  8
0
 62
7
 10
6420946.49
 20
5578912.66
 30
458.80
  0
POINT
  8
0
 62
7
 10
6420818.56
 20
5579137.27
  0
INSERT
  8
0
 62
7
  6
CONTINUOUS
  2
OSP
 10
6420818.56
 20
5579137.27
 50
0.00
 41
0.50
 42
0.50
 43
0.50
  0
POINT
  8
0
 62
7
 10
6420907.53
 20
5579058.76
 30
453.39
  0
POINT
  8
0
 62
7
 10
6420907.30
 20
5579059.37
 30
453.41
  0
POINT
  8
0
 62
7
 10
6420907.73
 20
5579059.36
 30
453.42
  0
POINT
  8
0
 62
7
 10
6420907.82
 20
5579061.62
 30
453.61
  0
POINT
  8
0
 62
7
 10
6420907.32
 20
5579062.52
 30
453.67
  0
POINT
  8
0
 62
7
 10
6420903.91
 20
5579069.70
 30
454.07
  0
POINT
  8
0
 62
7
 10
6420901.05
 20
5579075.96
 30
454.07
  0
POINT
  8
0
 62
7
 10
6420901.05
 20
5579075.89
 30
453.91
  0
POINT
  8
0
 62
7
 10
6420901.28
 20
5579076.82
 30
454.11
  0
INSERT
  8
0
 62
7
  6
CONTINUOUS
  2
WLZ
 10
6420901.28
 20
5579076.82
 50
0.00
 41
0.50
 42
0.50
 43
0.50
  0
POINT
  8
0
 62
7
 10
6420900.99
 20
5579077.42
 30
454.10
  0
POINT
  8
0
 62
7
 10
6420900.32
 20
5579077.49
 30
454.02
  0
POINT
  8
0
 62
7
 10
6420907.24
 20
5579077.46
 30
454.85
  0
INSERT
  8
0
 62
7
  6
CONTINUOUS
  2
WLZ
 10
6420907.24
 20
5579077.46
 50
0.00
 41
0.50
 42
0.50
 43
0.50
  0
POINT
  8
0
 62
7
 10
6420907.39
 20
5579077.10
 30
454.73
  0
POINT
  8
0
 62
7
 10
6420911.83
 20
5579072.48
 30
454.94
  0
INSERT
  8
0
 62
7
  6
CONTINUOUS
  2
WLZ
 10
6420911.83
 20
5579072.48
 50
0.00
 41
0.50
 42
0.50
 43
0.50
  0
POINT
  8
0
 62
7
 10
6420913.15
 20
5579069.28
 30
454.87
  0
POINT
  8
0
 62
7
 10
6420913.40
 20
5579068.93
 30
454.81
  0
POINT
  8
0
 62
7
 10
6420914.54
 20
5579066.08
 30
455.33
  0
POINT
  8
0
 62
7
 10
6420919.17
 20
5579064.81
 30
455.70
  0
POINT
  8
0
 62
7
 10
6420922.64
 20
5579070.12
 30
456.06
  0
POINT
  8
0
 62
7
 10
6420919.66
 20
5579074.14
 30
455.62
  0
POINT
  8
0
 62
7
 10
6420918.96
 20
5579075.20
 30
455.59
  0
POINT
  8
0
 62
7
 10
6420919.90
 20
5579076.21
 30
455.70
  0
INSERT
  8
0
 62
7
  6
CONTINUOUS
  2
UAR
 10
6420919.90
 20
5579076.21
 50
0.00
 41
0.50
 42
0.50
 43
0.50
  0
POINT
  8
0
 62
7
 10
6420920.85
 20
5579076.94
 30
455.81
  0
INSERT
  8
0
 62
7
  6
CONTINUOUS
  2
UAR
 10
6420920.85
 20
5579076.94
 50
0.00
 41
0.50
 42
0.50
 43
0.50
  0
POINT
  8
0
 62
7
 10
6420920.30
 20
5579077.40
 30
455.83
  0
INSERT
  8
0
 62
7
  6
CONTINUOUS
  2
WLZ
 10
6420920.30
 20
5579077.40
 50
0.00
 41
0.50
 42
0.50
 43
0.50
  0
POINT
  8
0
 62
7
 10
6420916.83
 20
5579077.27
 30
455.58
  0
INSERT
  8
0
 62
7
  6
CONTINUOUS
  2
WLZ
 10
6420916.83
 20
5579077.27
 50
0.00
 41
0.50
 42
0.50
 43
0.50
  0
POINT
  8
0
 62
7
 10
6420914.51
 20
5579080.22
 30
455.48
  0
INSERT
  8
0
 62
7
  6
CONTINUOUS
  2
WLZ
 10
6420914.51
 20
5579080.22
 50
0.00
 41
0.50
 42
0.50
 43
0.50
  0
POINT
  8
0
 62
7
 10
6420913.98
 20
5579080.85
 30
455.56
  0
POINT
  8
0
 62
7
 10
6420915.47
 20
5579081.57
 30
455.70
  0
INSERT
  8
0
 62
7
  6
CONTINUOUS
  2
WLM
 10
6420915.47
 20
5579081.57
 50
31.00
 41
0.50
 42
0.50
 43
0.50
  0
POINT
  8
0
 62
7
 10
6420830.69
 20
5578857.96
 30
455.65
  0
POINT
  8
0
 62
7
 10
6420916.65
 20
5579081.82
 30
455.82
  0
POINT
  8
0
 62
7
 10
6420916.04
 20
5579082.60
 30
455.83
  0
POINT
  8
0
 62
7
 10
6420930.12
 20
5579092.81
 30
457.42
  0
POINT
  8
0
 62
7
 10
6420930.94
 20
5579091.76
 30
457.40
  0
POINT
  8
0
 62
7
 10
6420930.95
 20
5579091.70
 30
457.25
  0
POINT
  8
0
 62
7
 10
6420932.69
 20
5579089.38
 30
457.36
  0
POINT
  8
0
 62
7
 10
6420934.59
 20
5579086.83
 30
457.25
  0
POINT
  8
0
 62
7
 10
6420934.64
 20
5579086.73
 30
457.43
  0
POINT
  8
0
 62
7
 10
6420934.90
 20
5579086.25
 30
457.48
  0
INSERT
  8
0
 62
7
  6
CONTINUOUS
  2
WLZ
 10
6420934.90
 20
5579086.25
 50
0.00
 41
0.50
 42
0.50
 43
0.50
  0
POINT
  8
0
 62
7
 10
6420935.33
 20
5579085.80
 30
457.40
  0
POINT
  8
0
 62
7
 10
6420935.53
 20
5579089.29
 30
457.52
  0
INSERT
  8
0
 62
7
  6
CONTINUOUS
  2
WLZ
 10
6420935.53
 20
5579089.29
 50
0.00
 41
0.50
 42
0.50
 43
0.50
  0
POINT
  8
0
 62
7
 10
6420943.34
 20
5579092.35
 30
458.25
  0
POINT
  8
0
 62
7
 10
6420942.63
 20
5579093.29
 30
458.25
  0
POINT
  8
0
 62
7
 10
6420942.57
 20
5579093.34
 30
458.13
  0
POINT
  8
0
 62
7
 10
6420940.54
 20
5579095.66
 30
458.19
  0
POINT
  8
0
 62
7
 10
6420938.56
 20
5579097.90
 30
458.06
  0
POINT
  8
0
 62
7
 10
6420938.51
 20
5579097.96
 30
458.18
  0
POINT
  8
0
 62
7
 10
6420937.69
 20
5579098.86
 30
458.19
  0
POINT
  8
0
 62
7
 10
6420940.92
 20
5579100.34
 30
458.43
  0
INSERT
  8
0
 62
7
  6
CONTINUOUS
  2
UAR
 10
6420940.92
 20
5579100.34
 50
0.00
 41
0.50
 42
0.50
 43
0.50
  0
POINT
  8
0
 62
7
 10
6420942.84
 20
5579101.74
 30
458.50
  0
POINT
  8
0
 62
7
 10
6420942.30
 20
5579103.49
 30
458.76
  0
POINT
  8
0
 62
7
 10
6420945.26
 20
5579106.37
 30
459.06
  0
POINT
  8
0
 62
7
 10
6420946.88
 20
5579105.80
 30
459.01
  0
POINT
  8
0
 62
7
 10
6420951.66
 20
5579100.11
 30
459.12
  0
POINT
  8
0
 62
7
 10
6420952.76
 20
5579100.99
 30
459.24
  0
POINT
  8
0
 62
7
 10
6420954.33
 20
5579100.78
 30
459.39
  0
POINT
  8
0
 62
7
 10
6420957.46
 20
5579104.34
 30
459.70
  0
POINT
  8
0
 62
7
 10
6420956.22
 20
5579105.51
 30
459.64
  0
INSERT
  8
0
 62
7
  6
CONTINUOUS
  2
WLZ
 10
6420956.22
 20
5579105.51
 50
0.00
 41
0.50
 42
0.50
 43
0.50
  0
POINT
  8
0
 62
7
 10
6420956.00
 20
5579105.93
 30
459.65
  0
POINT
  8
0
 62
7
 10
6420955.95
 20
5579105.96
 30
459.50
  0
POINT
  8
0
 62
7
 10
6420953.48
 20
5579108.56
 30
459.61
  0
POINT
  8
0
 62
7
 10
6420951.50
 20
5579110.45
 30
459.52
  0
POINT
  8
0
 62
7
 10
6420951.47
 20
5579110.54
 30
459.64
  0
POINT
  8
0
 62
7
 10
6420950.41
 20
5579111.50
 30
459.67
  0
POINT
  8
0
 62
7
 10
6420948.05
 20
5579109.17
 30
459.38
  0
POINT
  8
0
 62
7
 10
6420958.16
 20
5579107.59
 30
459.74
  0
POINT
  8
0
 62
7
 10
6420960.98
 20
5579108.71
 30
459.90
  0
POINT
  8
0
 62
7
 10
6420960.95
 20
5579108.61
 30
460.07
  0
POINT
  8
0
 62
7
 10
6420959.98
 20
5579107.31
 30
460.00
  0
POINT
  8
0
 62
7
 10
6420960.41
 20
5579106.23
 30
459.97
  0
POINT
  8
0
 62
7
 10
6420964.28
 20
5579105.62
 30
460.36
  0
POINT
  8
0
 62
7
 10
6420964.94
 20
5579107.29
 30
460.39
  0
POINT
  8
0
 62
7
 10
6420963.56
 20
5579109.38
 30
460.14
  0
POINT
  8
0
 62
7
 10
6420961.68
 20
5579111.92
 30
460.11
  0
INSERT
  8
0
 62
7
  6
CONTINUOUS
  2
UAR
 10
6420961.68
 20
5579111.92
 50
0.00
 41
0.50
 42
0.50
 43
0.50
  0
POINT
  8
0
 62
7
 10
6420956.23
 20
5579113.09
 30
460.00
  0
INSERT
  8
0
 62
7
  6
CONTINUOUS
  2
WLZ
 10
6420956.23
 20
5579113.09
 50
0.00
 41
0.50
 42
0.50
 43
0.50
  0
POINT
  8
0
 62
7
 10
6420955.18
 20
5579114.26
 30
459.93
  0
POINT
  8
0
 62
7
 10
6420955.12
 20
5579114.30
 30
460.08
  0
POINT
  8
0
 62
7
 10
6420954.30
 20
5579115.34
 30
460.11
  0
POINT
  8
0
 62
7
 10
6420960.04
 20
5579121.22
 30
460.80
  0
POINT
  8
0
 62
7
 10
6420961.02
 20
5579120.57
 30
460.77
  0
POINT
  8
0
 62
7
 10
6420961.07
 20
5579120.57
 30
460.65
  0
POINT
  8
0
 62
7
 10
6420963.73
 20
5579118.78
 30
460.73
  0
POINT
  8
0
 62
7
 10
6420967.97
 20
5579115.89
 30
460.74
  0
POINT
  8
0
 62
7
 10
6420973.94
 20
5579111.67
 30
461.04
  0
POINT
  8
0
 62
7
 10
6420990.64
 20
5579114.55
 30
462.52
  0
POINT
  8
0
 62
7
 10
6420982.60
 20
5579120.03
 30
461.98
  0
POINT
  8
0
 62
7
 10
6420982.21
 20
5579130.66
 30
462.31
  0
POINT
  8
0
 62
7
 10
6420981.17
 20
5579131.68
 30
462.12
  0
POINT
  8
0
 62
7
 10
6420980.13
 20
5579132.46
 30
462.15
  0
POINT
  8
0
 62
7
 10
6420976.67
 20
5579135.55
 30
462.18
  0
POINT
  8
0
 62
7
 10
6420974.66
 20
5579137.25
 30
462.08
  0
POINT
  8
0
 62
7
 10
6420974.60
 20
5579137.33
 30
462.18
  0
POINT
  8
0
 62
7
 10
6420973.48
 20
5579138.20
 30
462.23
  0
POINT
  8
0
 62
7
 10
6420998.39
 20
5579135.59
 30
463.69
  0
POINT
  8
0
 62
7
 10
6420996.51
 20
5579136.01
 30
463.41
  0
POINT
  8
0
 62
7
 10
6420991.18
 20
5579134.43
 30
462.96
  0
POINT
  8
0
 62
7
 10
6420988.66
 20
5579135.43
 30
462.80
  0
POINT
  8
0
 62
7
 10
6420988.06
 20
5579137.89
 30
462.81
  0
POINT
  8
0
 62
7
 10
6420992.42
 20
5579140.04
 30
463.30
  0
INSERT
  8
0
 62
7
  6
CONTINUOUS
  2
WLZ
 10
6420992.42
 20
5579140.04
 50
0.00
 41
0.50
 42
0.50
 43
0.50
  0
POINT
  8
0
 62
7
 10
6420989.59
 20
5579143.85
 30
462.89
  0
POINT
  8
0
 62
7
 10
6420991.08
 20
5579147.10
 30
463.05
  0
INSERT
  8
0
 62
7
  6
CONTINUOUS
  2
UAR
 10
6420991.08
 20
5579147.10
 50
0.00
 41
0.50
 42
0.50
 43
0.50
  0
POINT
  8
0
 62
7
 10
6420986.74
 20
5579148.99
 30
463.10
  0
INSERT
  8
0
 62
7
  6
CONTINUOUS
  2
WLZ
 10
6420986.74
 20
5579148.99
 50
0.00
 41
0.50
 42
0.50
 43
0.50
  0
POINT
  8
0
 62
7
 10
6420991.44
 20
5579149.66
 30
463.25
  0
POINT
  8
0
 62
7
 10
6420980.40
 20
5579147.14
 30
462.78
  0
POINT
  8
0
 62
7
 10
6420995.83
 20
5579148.97
 30
463.57
  0
POINT
  8
0
 62
7
 10
6420995.34
 20
5579150.00
 30
463.43
  0
POINT
  8
0
 62
7
 10
6421010.33
 20
5579153.72
 30
465.44
  0
POINT
  8
0
 62
7
 10
6421009.91
 20
5579154.67
 30
465.39
  0
POINT
  8
0
 62
7
 10
6421009.46
 20
5579155.45
 30
465.22
  0
INSERT
  8
0
 62
7
  6
CONTINUOUS
  2
WLZ
 10
6421009.46
 20
5579155.45
 50
0.00
 41
0.50
 42
0.50
 43
0.50
  0
POINT
  8
0
 62
7
 10
6421011.47
 20
5579155.43
 30
465.49
  0
INSERT
  8
0
 62
7
  6
CONTINUOUS
  2
UAR
 10
6421011.47
 20
5579155.43
 50
0.00
 41
0.50
 42
0.50
 43
0.50
  0
POINT
  8
0
 62
7
 10
6421012.00
 20
5579161.34
 30
465.86
  0
POINT
  8
0
 62
7
 10
6421010.35
 20
5579160.16
 30
465.48
  0
INSERT
  8
0
 62
7
  6
CONTINUOUS
  2
UAR
 10
6421010.35
 20
5579160.16
 50
0.00
 41
0.50
 42
0.50
 43
0.50
  0
POINT
  8
0
 62
7
 10
6421004.82
 20
5579160.93
 30
464.45
  0
POINT
  8
0
 62
7
 10
6421005.58
 20
5579165.91
 30
464.03
  0
INSERT
  8
0
 62
7
  6
CONTINUOUS
  2
UAR
 10
6421005.58
 20
5579165.91
 50
0.00
 41
0.50
 42
0.50
 43
0.50
  0
POINT
  8
0
 62
7
 10
6420997.64
 20
5579167.71
 30
463.79
  0
INSERT
  8
0
 62
7
  6
CONTINUOUS
  2
WLZ
 10
6420997.64
 20
5579167.71
 50
0.00
 41
0.50
 42
0.50
 43
0.50
  0
POINT
  8
0
 62
7
 10
6420996.28
 20
5579156.35
 30
463.66
  0
INSERT
  8
0
 62
7
  6
CONTINUOUS
  2
UAR
 10
6420996.28
 20
5579156.35
 50
0.00
 41
0.50
 42
0.50
 43
0.50
  0
POINT
  8
0
 62
7
 10
6420991.56
 20
5579160.09
 30
463.53
  0
POINT
  8
0
 62
7
 10
6421008.82
 20
5579168.79
 30
464.36
  0
POINT
  8
0
 62
7
 10
6421008.45
 20
5579169.16
 30
464.05
  0
POINT
  8
0
 62
7
 10
6421005.64
 20
5579171.06
 30
464.05
  0
POINT
  8
0
 62
7
 10
6421001.16
 20
5579174.23
 30
463.92
  0
POINT
  8
0
 62
7
 10
6421008.31
 20
5579190.37
 30
463.75
  0
POINT
  8
0
 62
7
 10
6421008.45
 20
5579190.32
 30
463.64
  0
POINT
  8
0
 62
7
 10
6421001.16
 20
5579174.23
 30
463.81
  0
POINT
  8
0
 62
7
 10
6421010.82
 20
5579189.15
 30
463.75
  0
POINT
  8
0
 62
7
 10
6421013.80
 20
5579187.42
 30
464.04
  0
POINT
  8
0
 62
7
 10
6421017.68
 20
5579185.35
 30
464.30
  0
POINT
  8
0
 62
7
 10
6421020.11
 20
5579184.13
 30
464.24
  0
POINT
  8
0
 62
7
 10
6421020.17
 20
5579184.11
 30
464.35
  0
POINT
  8
0
 62
7
 10
6421030.57
 20
5579196.64
 30
464.61
  0
INSERT
  8
0
 62
7
  6
CONTINUOUS
  2
WLZ
 10
6421030.57
 20
5579196.64
 50
0.00
 41
0.50
 42
0.50
 43
0.50
  0
POINT
  8
0
 62
7
 10
6421030.22
 20
5579196.92
 30
464.56
  0
POINT
  8
0
 62
7
 10
6421030.23
 20
5579196.92
 30
464.49
  0
POINT
  8
0
 62
7
 10
6421028.02
 20
5579198.47
 30
464.60
  0
POINT
  8
0
 62
7
 10
6421026.00
 20
5579199.86
 30
464.49
  0
POINT
  8
0
 62
7
 10
6421025.93
 20
5579199.91
 30
464.63
  0
POINT
  8
0
 62
7
 10
6421024.98
 20
5579200.65
 30
464.63
  0
POINT
  8
0
 62
7
 10
6421023.74
 20
5579201.54
 30
464.53
  0
POINT
  8
0
 62
7
 10
6421018.31
 20
5579205.37
 30
462.87
  0
POINT
  8
0
 62
7
 10
6421037.23
 20
5579205.80
 30
464.78
  0
POINT
  8
0
 62
7
 10
6421037.17
 20
5579205.89
 30
464.68
  0
POINT
  8
0
 62
7
 10
6421035.08
 20
5579207.63
 30
464.82
  0
POINT
  8
0
 62
7
 10
6421033.22
 20
5579209.06
 30
464.75
  0
POINT
  8
0
 62
7
 10
6421033.11
 20
5579209.11
 30
464.88
  0
POINT
  8
0
 62
7
 10
6421032.26
 20
5579209.87
 30
464.90
  0
POINT
  8
0
 62
7
 10
6421030.22
 20
5579211.55
 30
464.80
  0
POINT
  8
0
 62
7
 10
6421045.15
 20
5579216.15
 30
464.92
  0
POINT
  8
0
 62
7
 10
6421040.62
 20
5579210.22
 30
464.84
  0
POINT
  8
0
 62
7
 10
6421044.07
 20
5579211.08
 30
465.10
  0
POINT
  8
0
 62
7
 10
6421046.65
 20
5579210.87
 30
465.39
  0
POINT
  8
0
 62
7
 10
6421047.91
 20
5579219.22
 30
465.09
  0
POINT
  8
0
 62
7
 10
6421051.50
 20
5579219.92
 30
465.35
  0
POINT
  8
0
 62
7
 10
6421048.62
 20
5579213.88
 30
465.44
  0
POINT
  8
0
 62
7
 10
6421055.81
 20
5579221.60
 30
465.67
  0
POINT
  8
0
 62
7
 10
6421055.24
 20
5579226.44
 30
465.32
  0
POINT
  8
0
 62
7
 10
6421055.86
 20
5579229.03
 30
465.32
  0
INSERT
  8
0
 62
7
  6
CONTINUOUS
  2
WLZ
 10
6421055.86
 20
5579229.03
 50
0.00
 41
0.50
 42
0.50
 43
0.50
  0
POINT
  8
0
 62
7
 10
6421055.34
 20
5579229.20
 30
465.18
  0
POINT
  8
0
 62
7
 10
6421053.38
 20
5579230.88
 30
465.22
  0
POINT
  8
0
 62
7
 10
6421051.46
 20
5579232.42
 30
465.18
  0
POINT
  8
0
 62
7
 10
6421051.45
 20
5579232.48
 30
465.30
  0
POINT
  8
0
 62
7
 10
6421050.50
 20
5579233.13
 30
465.30
  0
POINT
  8
0
 62
7
 10
6421058.91
 20
5579234.11
 30
465.25
  0
INSERT
  8
0
 62
7
  6
CONTINUOUS
  2
UAR
 10
6421058.91
 20
5579234.11
 50
0.00
 41
0.50
 42
0.50
 43
0.50
  0
POINT
  8
0
 62
7
 10
6421063.97
 20
5579240.11
 30
465.37
  0
POINT
  8
0
 62
7
 10
6421061.91
 20
5579242.21
 30
465.45
  0
POINT
  8
0
 62
7
 10
6421060.38
 20
5579243.80
 30
465.42
  0
POINT
  8
0
 62
7
 10
6421056.93
 20
5579247.42
 30
464.87
  0
POINT
  8
0
 62
7
 10
6421075.62
 20
5579254.32
 30
466.17
  0
POINT
  8
0
 62
7
 10
6421075.22
 20
5579254.57
 30
466.04
  0
POINT
  8
0
 62
7
 10
6421071.89
 20
5579257.48
 30
466.05
  0
POINT
  8
0
 62
7
 10
6421012.09
 20
5579197.63
 30
463.26
  0
INSERT
  8
0
 62
7
  6
CONTINUOUS
  2
UAR
 10
6421012.09
 20
5579197.63
 50
0.00
 41
0.50
 42
0.50
 43
0.50
  0
POINT
  8
0
 62
7
 10
6421012.71
 20
5579198.75
 30
463.15
  0
INSERT
  8
0
 62
7
  6
CONTINUOUS
  2
UAR
 10
6421012.71
 20
5579198.75
 50
0.00
 41
0.50
 42
0.50
 43
0.50
  0
POINT
  8
0
 62
7
 10
6421016.62
 20
5579201.10
 30
463.15
  0
POINT
  8
0
 62
7
 10
6421016.97
 20
5579206.35
 30
462.83
  0
POINT
  8
0
 62
7
 10
6421016.93
 20
5579206.43
 30
462.72
  0
POINT
  8
0
 62
7
 10
6421015.70
 20
5579207.37
 30
462.65
  0
POINT
  8
0
 62
7
 10
6421014.02
 20
5579208.55
 30
462.40
  0
POINT
  8
0
 62
7
 10
6421013.97
 20
5579208.57
 30
462.54
  0
POINT
  8
0
 62
7
 10
6421012.07
 20
5579209.82
 30
462.53
  0
POINT
  8
0
 62
7
 10
6421013.99
 20
5579214.12
 30
462.03
  0
POINT
  8
0
 62
7
 10
6421019.16
 20
5579216.56
 30
462.23
  0
INSERT
  8
0
 62
7
  6
CONTINUOUS
  2
WLM
 10
6421019.16
 20
5579216.56
 50
343.00
 41
0.50
 42
0.50
 43
0.50
  0
POINT
  8
0
 62
7
 10
6421031.33
 20
5579198.14
 30
461.67
  0
POINT
  8
0
 62
7
 10
6421022.00
 20
5579218.29
 30
462.36
  0
POINT
  8
0
 62
7
 10
6421020.85
 20
5579219.31
 30
462.33
  0
POINT
  8
0
 62
7
 10
6421020.79
 20
5579219.32
 30
462.24
  0
POINT
  8
0
 62
7
 10
6421018.13
 20
5579221.51
 30
461.87
  0
POINT
  8
0
 62
7
 10
6421015.90
 20
5579223.31
 30
461.87
  0
POINT
  8
0
 62
7
 10
6421013.61
 20
5579225.22
 30
461.67
  0
POINT
  8
0
 62
7
 10
6421023.60
 20
5579222.76
 30
462.35
  0
INSERT
  8
0
 62
7
  6
CONTINUOUS
  2
WLM
 10
6421023.60
 20
5579222.76
 50
325.00
 41
0.50
 42
0.50
 43
0.50
  0
POINT
  8
0
 62
7
 10
6421027.03
 20
5579231.18
 30
462.76
  0
POINT
  8
0
 62
7
 10
6421023.21
 20
5579233.73
 30
462.38
  0
POINT
  8
0
 62
7
 10
6421019.78
 20
5579229.99
 30
462.16
  0
INSERT
  8
0
 62
7
  6
CONTINUOUS
  2
UAR
 10
6421019.78
 20
5579229.99
 50
0.00
 41
0.50
 42
0.50
 43
0.50
  0
POINT
  8
0
 62
7
 10
6421030.63
 20
5579217.08
 30
463.28
  0
POINT
  8
0
 62
7
 10
6421034.25
 20
5579216.23
 30
464.67
  0
POINT
  8
0
 62
7
 10
6421044.83
 20
5579223.87
 30
465.00
  0
POINT
  8
0
 62
7
 10
6421044.70
 20
5579223.93
 30
465.17
  0
POINT
  8
0
 62
7
 10
6421043.94
 20
5579224.97
 30
465.18
  0
POINT
  8
0
 62
7
 10
6421043.33
 20
5579224.10
 30
465.15
  0
POINT
  8
0
 62
7
 10
6421039.53
 20
5579226.84
 30
464.67
  0
POINT
  8
0
 62
7
 10
6421037.14
 20
5579225.28
 30
463.57
  0
POINT
  8
0
 62
7
 10
6421036.55
 20
5579230.39
 30
463.33
  0
POINT
  8
0
 62
7
 10
6421035.70
 20
5579231.63
 30
463.19
  0
POINT
  8
0
 62
7
 10
6421041.93
 20
5579241.51
 30
463.80
  0
INSERT
  8
0
 62
7
  6
CONTINUOUS
  2
WLZ
 10
6421041.93
 20
5579241.51
 50
0.00
 41
0.50
 42
0.50
 43
0.50
  0
POINT
  8
0
 62
7
 10
6421046.09
 20
5579237.67
 30
464.02
  0
POINT
  8
0
 62
7
 10
6421053.48
 20
5579243.91
 30
464.56
  0
POINT
  8
0
 62
7
 10
6421046.36
 20
5579244.99
 30
464.11
  0
POINT
  8
0
 62
7
 10
6421053.08
 20
5579244.51
 30
464.42
  0
POINT
  8
0
 62
7
 10
6421056.95
 20
5579247.33
 30
464.85
  0
POINT
  8
0
 62
7
 10
6421053.87
 20
5579250.57
 30
464.67
  0
POINT
  8
0
 62
7
 10
6421053.83
 20
5579250.63
 30
464.78
  0
POINT
  8
0
 62
7
 10
6421053.04
 20
5579251.82
 30
464.82
  0
POINT
  8
0
 62
7
 10
6421052.82
 20
5579250.54
 30
464.73
  0
INSERT
  8
0
 62
7
  6
CONTINUOUS
  2
WLM
 10
6421052.82
 20
5579250.54
 50
316.00
 41
0.50
 42
0.50
 43
0.50
  0
POINT
  8
0
 62
7
 10
6420908.73
 20
5579066.40
  0
POINT
  8
0
 62
7
 10
6420907.65
 20
5579064.50
  0
POINT
  8
0
 62
7
 10
6420908.25
 20
5579064.21
  0
POINT
  8
0
 62
7
 10
6420913.57
 20
5579068.84
  0
POINT
  8
0
 62
7
 10
6420980.96
 20
5579133.03
  0
POINT
  8
0
 62
7
 10
6420982.11
 20
5579133.08
  0
POINT
  8
0
 62
7
 10
6420982.66
 20
5579132.33
  0
POINT
  8
0
 62
7
 10
6420980.71
 20
5579126.13
  0
POINT
  8
0
 62
7
 10
6420977.86
 20
5579122.38
  0
POINT
  8
0
 62
7
 10
6420974.96
 20
5579119.23
  0
POINT
  8
0
 62
7
 10
6420973.46
 20
5579117.73
  0
POINT
  8
0
 62
7
 10
6420971.26
 20
5579116.28
  0
POINT
  8
0
 62
7
 10
6420969.16
 20
5579115.68
  0
POINT
  8
0
 62
7
 10
6420967.46
 20
5579116.73
  0
POINT
  8
0
 62
7
 10
6420967.61
 20
5579117.93
  0
POINT
  8
0
 62
7
 10
6420980.41
 20
5579126.58
  0
POINT
  8
0
 62
7
 10
6420991.71
 20
5579159.68
  0
POINT
  8
0
 62
7
 10
6420985.41
 20
5579151.08
  0
POINT
  8
0
 62
7
 10
6420996.71
 20
5579167.13
  0
POINT
  8
0
 62
7
 10
6421013.91
 20
5579156.08
  0
POINT
  8
0
 62
7
 10
6421012.41
 20
5579160.93
  0
POINT
  8
0
 62
7
 10
6421008.81
 20
5579160.03
  0
POINT
  8
0
 62
7
 10
6421007.06
 20
5579160.23
  0
POINT
  8
0
 62
7
 10
6421004.61
 20
5579163.68
  0
POINT
  8
0
 62
7
 10
6421006.51
 20
5579166.83
  0
POINT
  8
0
 62
7
 10
6421054.81
 20
5579245.28
  0
POINT
  8
0
 62
7
 10
6421056.31
 20
5579245.78
  0
POINT
  8
0
 62
7
 10
6421057.66
 20
5579245.73
  0
POINT
  8
0
 62
7
 10
6421058.71
 20
5579245.38
  0
POINT
  8
0
 62
7
 10
6421059.46
 20
5579244.53
  0
POINT
  8
0
 62
7
 10
6421059.51
 20
5579243.53
  0
POINT
  8
0
 62
7
 10
6421059.26
 20
5579242.48
  0
POINT
  8
0
 62
7
 10
6421058.81
 20
5579241.68
  0
POINT
  8
0
 62
7
 10
6421017.21
 20
5579188.63
  0
POINT
  8
0
 62
7
 10
6421016.46
 20
5579187.73
  0
POINT
  8
0
 62
7
 10
6421015.56
 20
5579187.23
  0
POINT
  8
0
 62
7
 10
6421014.61
 20
5579187.18
  0
POINT
  8
0
 62
7
 10
6421013.16
 20
5579188.53
  0
POINT
  8
0
 62
7
 10
6421012.96
 20
5579190.18
  0
POINT
  8
0
 62
7
 10
6421013.36
 20
5579192.28
  0
POINT
  8
0
 62
7
 10
6421047.51
 20
5579217.68
  0
POINT
  8
0
 62
7
 10
6421047.56
 20
5579216.28
  0
POINT
  8
0
 62
7
 10
6421047.96
 20
5579214.93
  0
POINT
  8
0
 62
7
 10
6421050.11
 20
5579213.43
  0
POINT
  8
0
 62
7
 10
6421052.11
 20
5579213.53
  0
POINT
  8
0
 62
7
 10
6421053.36
 20
5579214.53
  0
POINT
  8
0
 62
7
 10
6421053.61
 20
5579216.28
  0
POINT
  8
0
 62
7
 10
6421053.11
 20
5579217.78
  0
POINT
  8
0
 62
7
 10
6421052.31
 20
5579219.08
  0
POINT
  8
0
 62
7
 10
6421018.70
 20
5579212.45
  0
POINT
  8
0
 62
7
 10
6421004.40
 20
5579180.10
  0
POINT
  8
0
 62
7
 10
6421010.35
 20
5579213.15
  0
POINT
  8
0
 62
7
 10
6421011.75
 20
5579214.05
  0
POINT
  8
0
 62
7
 10
6421012.90
 20
5579214.45
  0
POINT
  8
0
 62
7
 10
6421015.15
 20
5579213.45
  0
POINT
  8
0
 62
7
 10
6421015.40
 20
5579212.35
  0
POINT
  8
0
 62
7
 10
6421011.25
 20
5579199.45
  0
POINT
  8
0
 62
7
 10
6421011.40
 20
5579199.90
  0
POINT
  8
0
 62
7
 10
6421015.05
 20
5579212.20
  0
POINT
  8
0
 62
7
 10
6421014.90
 20
5579213.25
  0
POINT
  8
0
 62
7
 10
6421056.75
 20
5579219.95
  0
POINT
  8
0
 62
7
 10
6420917.12
 20
5579072.26
  0
POINT
  8
0
 62
7
 10
6420899.36
 20
5579076.07
  0
POINT
  8
0
 62
7
 10
6420898.07
 20
5579076.28
  0
POINT
  8
0
 62
7
 10
6420896.72
 20
5579077.21
  0
POINT
  8
0
 62
7
 10
6420895.76
 20
5579081.29
  0
POINT
  8
0
 62
7
 10
6421034.48
 20
5579255.56
  0
POINT
  8
0
 62
7
 10
6421022.90
 20
5579233.96
  0
POINT
  8
0
 62
7
 10
6421030.70
 20
5579257.06
  0
POINT
  8
0
 62
7
 10
6421020.80
 20
5579238.40
  0
POINT
  8
0
 62
7
 10
6421014.74
 20
5579225.74
  0
POINT
  8
0
 62
7
 10
6421013.84
 20
5579224.96
  0
POINT
  8
0
 62
7
 10
6421012.34
 20
5579224.06
  0
POINT
  8
0
 62
7
 10
6421010.00
 20
5579223.04
  0
POINT
  8
0
 62
7
 10
6421010.72
 20
5579221.48
  0
POINT
  8
0
 62
7
 10
6421011.08
 20
5579220.40
  0
POINT
  8
0
 62
7
 10
6421011.20
 20
5579219.08
  0
POINT
  8
0
 62
7
 10
6421010.90
 20
5579218.06
  0
POINT
  8
0
 62
7
 10
6421010.42
 20
5579216.92
  0
POINT
  8
0
 62
7
 10
6421008.86
 20
5579215.84
  0
POINT
  8
0
 62
7
 10
6421018.28
 20
5579217.16
  0
POINT
  8
0
 62
7
 10
6421027.88
 20
5579230.72
  0
POINT
  8
0
 62
7
 10
6421068.56
 20
5579260.30
  0
POINT
  8
0
 62
7
 10
6421046.90
 20
5579244.64
  0
POINT
  8
0
 62
7
 10
6421007.00
 20
5579160.04
  0
POINT
  8
0
 62
7
 10
6421010.33
 20
5579160.40
  0
POINT
  8
0
 62
7
 10
6420946.71
 20
5579105.86
  0
POINT
  8
0
 62
7
 10
6420935.79
 20
5579097.13
  0
POINT
  8
0
 62
7
 10
6420935.57
 20
5579097.46
  0
POINT
  8
0
 62
7
 10
6420915.88
 20
5579082.89
  0
POINT
  8
0
 62
7
 10
6420921.98
 20
5579087.42
  0
POINT
  8
0
 62
7
 10
6420922.07
 20
5579086.99
  0
POINT
  8
0
 62
7
 10
6420922.27
 20
5579087.62
  0
POINT
  8
0
 62
7
 10
6420922.38
 20
5579087.20
  0
POINT
  8
0
 62
7
 10
6420927.24
 20
5579091.27
  0
POINT
  8
0
 62
7
 10
6420927.33
 20
5579090.79
  0
POINT
  8
0
 62
7
 10
6420927.51
 20
5579091.45
  0
POINT
  8
0
 62
7
 10
6420927.62
 20
5579091.00
  0
POINT
  8
0
 62
7
 10
6421017.00
 20
5579206.65
  0
POINT
  8
0
 62
7
 10
6421039.25
 20
5579208.73
  0
POINT
  8
0
 62
7
 10
6420990.70
 20
5579115.30
  0
POINT
  8
0
 62
7
 10
6420990.90
 20
5579115.65
  0
POINT
  8
0
 62
7
 10
6420934.87
 20
5579086.42
  0
INSERT
  8
0
 62
7
  6
CONTINUOUS
  2
LAT
 10
6420934.87
 20
5579086.42
 50
0.00
 41
0.50
 42
0.50
 43
0.50
  0
POINT
  8
0
 62
7
 10
6420956.13
 20
5579105.66
  0
INSERT
  8
0
 62
7
  6
CONTINUOUS
  2
LAT
 10
6420956.13
 20
5579105.66
 50
0.00
 41
0.50
 42
0.50
 43
0.50
  0
POINT
  8
0
 62
7
 10
6421030.58
 20
5579196.64
 30
464.61
  0
INSERT
  8
0
 62
7
  6
CONTINUOUS
  2
LAT
 10
6421030.58
 20
5579196.64
 50
0.00
 41
0.50
 42
0.50
 43
0.50
  0
POINT
  8
0
 62
7
 10
6421055.87
 20
5579229.02
 30
465.32
  0
INSERT
  8
0
 62
7
  6
CONTINUOUS
  2
LAT
 10
6421055.87
 20
5579229.02
 50
0.00
 41
0.50
 42
0.50
 43
0.50
  0
POINT
  8
0
 62
1
 10
6420914.71
 20
5579069.61
  0
POINT
  8
0
 62
1
 10
6420989.51
 20
5579158.99
  0
POINT
  8
0
 62
1
 10
6421013.80
 20
5579209.69
  0
POINT
  8
0
 62
1
 10
6420968.40
 20
5579115.73
  0
POINT
  8
0
 62
1
 10
6420961.59
 20
5579108.28
  0
POINT
  8
0
 62
1
 10
6421006.66
 20
5579164.35
  0
POINT
  8
0
 62
1
 10
6420996.99
 20
5579169.18
  0
POINT
  8
0
 62
1
 10
6421002.77
 20
5579179.15
  0
POINT
  8
0
 62
1
 10
6421006.64
 20
5579188.68
  0
POINT
  8
0
 62
1
 10
6420937.37
 20
5579086.47
  0
POINT
  8
0
 62
1
 10
6420895.97
 20
5579075.91
  0
POINT
  8
0
 62
1
 10
6421024.75
 20
5579221.11
  0
POINT
  8
0
 62
1
 10
6420960.22
 20
5579120.89
  0
POINT
  8
0
 62
1
 10
6421009.83
 20
5579211.98
  0
POINT
  8
0
 62
1
 10
6420948.12
 20
5579108.86
  0
POINT
  8
0
 62
1
 10
6421012.16
 20
5579203.61
  0
POINT
  8
0
 62
1
 10
6420954.28
 20
5579114.98
  0
POINT
  8
0
 62
1
 10
6421043.37
 20
5579210.66
  0
POINT
  8
0
 62
1
 10
6421080.54
 20
5579255.39
  0
POINT
  8
0
 62
1
 10
6421056.53
 20
5579244.80
  0
POINT
  8
0
 62
1
 10
6420906.87
 20
5579063.77
  0
POINT
  8
0
 62
1
 10
6420913.19
 20
5579068.48
  0
POINT
  8
0
 62
1
 10
6420913.78
 20
5579080.80
  0
POINT
  8
0
 62
1
 10
6420901.25
 20
5579077.45
  0
POINT
  8
0
 62
1
 10
6421055.38
 20
5579225.11
  0
POINT
  8
0
 62
1
 10
6420980.56
 20
5579146.89
  0
POINT
  8
0
 62
1
 10
6420996.19
 20
5579148.82
  0
POINT
  8
0
 62
1
 10
6420994.10
 20
5579146.39
  0
POINT
  8
0
 62
1
 10
6420935.62
 20
5579096.44
  0
POINT
  8
0
 62
1
 10
6421003.53
 20
5579181.01
  0
POINT
  8
0
 62
7
 10
6420913.56
 20
5579058.50
  0
POINT
  8
0
 62
7
 10
6420909.13
 20
5579065.99
  0
POINT
  8
0
 62
7
 10
6420909.13
 20
5579065.99
  0
POINT
  8
0
 62
7
 10
6420992.76
 20
5579148.42
  0
POINT
  8
0
 62
7
 10
6420899.63
 20
5578964.60
 30
454.62
  0
INSERT
  8
0
 62
7
  6
CONTINUOUS
  2
OSM
 10
6420899.63
 20
5578964.60
 50
0.00
 41
0.50
 42
0.50
 43
0.50
  0
POINT
  8
0
 62
7
 10
6420909.13
 20
5579065.99
 30
454.14
  0
INSERT
  8
0
 62
7
  6
CONTINUOUS
  2
OSM
 10
6420909.13
 20
5579065.99
 50
0.00
 41
0.50
 42
0.50
 43
0.50
  0
POINT
  8
0
 62
7
 10
6420992.75
 20
5579148.42
 30
463.35
  0
INSERT
  8
0
 62
7
  6
CONTINUOUS
  2
OSM
 10
6420992.75
 20
5579148.42
 50
0.00
 41
0.50
 42
0.50
 43
0.50
  0
POINT
  8
0
 62
7
 10
6421031.37
 20
5579228.29
 30
462.97
  0
INSERT
  8
0
 62
7
  6
CONTINUOUS
  2
OSM
 10
6421031.37
 20
5579228.29
 50
0.00
 41
0.50
 42
0.50
 43
0.50
  0
POINT
  8
0
 62
7
 10
6420977.39
 20
5579196.96
 30
459.29
  0
INSERT
  8
0
 62
7
  6
CONTINUOUS
  2
OSM
 10
6420977.39
 20
5579196.96
 50
0.00
 41
0.50
 42
0.50
 43
0.50
  0
POINT
  8
0
 62
7
 10
6420933.10
 20
5579223.16
 30
453.25
  0
INSERT
  8
0
 62
7
  6
CONTINUOUS
  2
OSM
 10
6420933.10
 20
5579223.16
 50
0.00
 41
0.50
 42
0.50
 43
0.50
  0
POINT
  8
0
 62
7
 10
6420867.35
 20
5579192.33
 30
451.05
  0
INSERT
  8
0
 62
7
  6
CONTINUOUS
  2
OSM
 10
6420867.35
 20
5579192.33
 50
0.00
 41
0.50
 42
0.50
 43
0.50
  0
POINT
  8
0
 62
7
 10
6420916.31
 20
5579050.02
  0
POINT
  8
0
 62
7
 10
6420915.48
 20
5579051.26
  0
POINT
  8
0
 62
7
 10
6420915.15
 20
5579051.19
  0
POINT
  8
0
 62
7
 10
6421012.33
 20
5579224.38
  0
POINT
  8
0
 62
7
 10
6421068.38
 20
5579260.64
  0
POINT
  8
0
 62
7
 10
6421042.94
 20
5579242.34
  0
POINT
  8
0
 62
7
 10
6421027.52
 20
5579230.94
  0
POINT
  8
0
 62
7
 10
6421014.02
 20
5579187.27
  0
POINT
  8
0
 62
7
 10
6421014.30
 20
5579187.19
  0
POINT
  8
0
 62
7
 10
6420986.72
 20
5579163.60
  0
POINT
  8
0
 62
7
 10
6420976.88
 20
5579152.68
  0
POINT
  8
0
 62
7
 10
6421024.04
 20
5579158.02
  0
POINT
  8
0
 62
7
 10
6421008.08
 20
5579161.20
  0
POINT
  8
0
 62
7
 10
6421021.16
 20
5579165.40
  0
POINT
  8
0
 62
7
 10
6420999.68
 20
5579186.70
  0
POINT
  8
0
 62
7
 10
6420984.98
 20
5579166.66
  0
POINT
  8
0
 62
7
 10
6420983.60
 20
5579142.50
  0
POINT
  8
0
 62
7
 10
6420983.30
 20
5579143.40
  0
POINT
  8
0
 62
7
 10
6420914.82
 20
5579051.68
  0
POINT
  8
0
 62
7
 10
6420915.30
 20
5579046.64
  0
POINT
  8
0
 62
7
 10
6420905.31
 20
5579052.94
  0
POINT
  8
0
 62
7
 10
6420962.37
 20
5579092.90
  0
POINT
  8
0
 62
7
 10
6420975.60
 20
5579106.49
  0
POINT
  8
0
 62
7
 10
6420998.19
 20
5579112.88
  0
POINT
  8
0
 62
7
 10
6421005.12
 20
5579139.34
  0
POINT
  8
0
 62
7
 10
6421017.90
 20
5579168.23
  0
POINT
  8
0
 62
7
 10
6421063.62
 20
5579226.19
  0
POINT
  8
0
 62
7
 10
6421091.07
 20
5579258.77
  0
POINT
  8
0
 62
7
 10
6421073.07
 20
5579276.77
  0
POINT
  8
0
 62
7
 10
6421042.47
 20
5579254.72
  0
POINT
  8
0
 62
7
 10
6421012.86
 20
5579229.25
  0
POINT
  8
0
 62
7
 10
6420997.74
 20
5579214.94
  0
POINT
  8
0
 62
7
 10
6420995.85
 20
5579182.00
  0
POINT
  8
0
 62
7
 10
6420944.19
 20
5579116.21
  0
POINT
  8
0
 62
7
 10
6420889.92
 20
5579085.16
  0
POINT
  8
0
 62
7
 10
6420905.31
 20
5579052.94
  0
POINT
  8
0
 62
7
 10
6420911.43
 20
5579057.17
  0
POINT
  8
0
 62
7
 10
6420883.44
 20
5579081.29
  0
POINT
  8
0
 62
7
 10
6420906.84
 20
5579053.66
  0
POINT
  8
0
 62
7
 10
6420898.65
 20
5579048.35
  0
POLYLINE
  8
dzialki
 40
0.13
 41
0.13
  6
CONTINUOUS
 62
4
 70
1
 66
1
  0
VERTEX
  8
dzialki
 10
6420906.87
 20
5579063.77
  0
VERTEX
  8
dzialki
 10
6420913.19
 20
5579068.48
  0
VERTEX
  8
dzialki
 10
6420914.71
 20
5579069.61
  0
VERTEX
  8
dzialki
 10
6420937.37
 20
5579086.47
  0
VERTEX
  8
dzialki
 10
6420961.59
 20
5579108.28
  0
VERTEX
  8
dzialki
 10
6420968.40
 20
5579115.73
  0
VERTEX
  8
dzialki
 10
6420994.10
 20
5579146.39
  0
VERTEX
  8
dzialki
 10
6420996.19
 20
5579148.82
  0
VERTEX
  8
dzialki
 10
6421006.66
 20
5579164.35
  0
VERTEX
  8
dzialki
 10
6421043.37
 20
5579210.66
  0
VERTEX
  8
dzialki
 10
6421055.38
 20
5579225.11
  0
VERTEX
  8
dzialki
 10
6421080.54
 20
5579255.39
  0
VERTEX
  8
dzialki
 10
6421056.53
 20
5579244.80
  0
VERTEX
  8
dzialki
 10
6421024.75
 20
5579221.11
  0
VERTEX
  8
dzialki
 10
6421009.83
 20
5579211.98
  0
VERTEX
  8
dzialki
 10
6421013.80
 20
5579209.69
  0
VERTEX
  8
dzialki
 10
6421012.16
 20
5579203.61
  0
VERTEX
  8
dzialki
 10
6421006.64
 20
5579188.68
  0
VERTEX
  8
dzialki
 10
6421003.53
 20
5579181.01
  0
VERTEX
  8
dzialki
 10
6421002.77
 20
5579179.15
  0
VERTEX
  8
dzialki
 10
6420996.99
 20
5579169.18
  0
VERTEX
  8
dzialki
 10
6420989.51
 20
5579158.99
  0
VERTEX
  8
dzialki
 10
6420980.56
 20
5579146.89
  0
VERTEX
  8
dzialki
 10
6420960.22
 20
5579120.89
  0
VERTEX
  8
dzialki
 10
6420954.28
 20
5579114.98
  0
VERTEX
  8
dzialki
 10
6420948.12
 20
5579108.86
  0
VERTEX
  8
dzialki
 10
6420935.79
 20
5579097.13
  0
VERTEX
  8
dzialki
 10
6420913.78
 20
5579080.80
  0
VERTEX
  8
dzialki
 10
6420901.25
 20
5579077.45
  0
VERTEX
  8
dzialki
 10
6420895.97
 20
5579075.91
  0
SEQEND
  8
dzialki
  0
POLYLINE
  8
korytka_kd
 40
0.07
 41
0.07
  6
CONTINUOUS
 62
7
 66
1
  0
VERTEX
  8
korytka_kd
 10
6420907.32
 20
5579062.52
  0
VERTEX
  8
korytka_kd
 10
6420907.65
 20
5579064.50
  0
VERTEX
  8
korytka_kd
 10
6420908.73
 20
5579066.40
  0
SEQEND
  8
korytka_kd
  0
POLYLINE
  8
korytka_kd
 40
0.07
 41
0.07
  6
CONTINUOUS
 62
7
 66
1
  0
VERTEX
  8
korytka_kd
 10
6420907.82
 20
5579061.62
  0
VERTEX
  8
korytka_kd
 10
6420908.25
 20
5579064.21
  0
VERTEX
  8
korytka_kd
 10
6420909.13
 20
5579065.99
  0
SEQEND
  8
korytka_kd
  0
POLYLINE
  8
korytka_kd
 40
0.07
 41
0.07
  6
CONTINUOUS
 62
7
 66
1
  0
VERTEX
  8
korytka_kd
 10
6420907.30
 20
5579059.37
 30
453.41
  0
VERTEX
  8
korytka_kd
 10
6420907.73
 20
5579059.36
 30
453.42
  0
VERTEX
  8
korytka_kd
 10
6420907.82
 20
5579061.62
 30
453.61
  0
SEQEND
  8
korytka_kd
  0
POLYLINE
  8
korytka_kd
 40
0.07
 41
0.07
  6
CONTINUOUS
 62
7
 66
1
  0
VERTEX
  8
korytka_kd
 10
6420907.30
 20
5579059.37
 30
453.41
  0
VERTEX
  8
korytka_kd
 10
6420907.32
 20
5579062.52
 30
453.67
  0
SEQEND
  8
korytka_kd
  0
POLYLINE
  8
korytka_kd
 40
0.07
 41
0.07
  6
CONTINUOUS
 62
7
 66
1
  0
VERTEX
  8
korytka_kd
 10
6420908.73
 20
5579066.40
  0
VERTEX
  8
korytka_kd
 10
6420913.15
 20
5579069.28
 30
454.87
  0
VERTEX
  8
korytka_kd
 10
6420913.40
 20
5579068.93
 30
454.81
  0
VERTEX
  8
korytka_kd
 10
6420909.13
 20
5579065.99
  0
SEQEND
  8
korytka_kd
  0
POLYLINE
  8
korytka_kd
 40
0.07
 41
0.07
  6
CONTINUOUS
 62
7
 66
1
  0
VERTEX
  8
korytka_kd
 10
6420918.96
 20
5579075.20
 30
455.59
  0
VERTEX
  8
korytka_kd
 10
6420919.66
 20
5579074.14
 30
455.62
  0
SEQEND
  8
korytka_kd
  0
POLYLINE
  8
korytka_kd
 40
0.07
 41
0.07
  6
CONTINUOUS
 62
7
 66
1
  0
VERTEX
  8
korytka_kd
 10
6420918.96
 20
5579075.20
 30
455.59
  0
VERTEX
  8
korytka_kd
 10
6420934.64
 20
5579086.73
 30
457.43
  0
SEQEND
  8
korytka_kd
  0
POLYLINE
  8
kraweznik
 40
0.13
 41
0.13
  6
CONTINUOUS
 62
36
 66
1
  0
VERTEX
  8
kraweznik
 10
6420980.13
 20
5579132.46
  0
VERTEX
  8
kraweznik
 10
6420980.96
 20
5579133.03
  0
VERTEX
  8
kraweznik
 10
6420982.11
 20
5579133.08
  0
VERTEX
  8
kraweznik
 10
6420982.66
 20
5579132.33
 30
462.31
  0
VERTEX
  8
kraweznik
 10
6420982.55
 20
5579131.49
 30
50000000000000000000.00
  0
VERTEX
  8
kraweznik
 10
6420982.21
 20
5579130.66
  0
VERTEX
  8
kraweznik
 10
6420980.41
 20
5579126.58
  0
VERTEX
  8
kraweznik
 10
6420977.86
 20
5579122.38
  0
VERTEX
  8
kraweznik
 10
6420974.96
 20
5579119.23
  0
VERTEX
  8
kraweznik
 10
6420973.46
 20
5579117.73
  0
VERTEX
  8
kraweznik
 10
6420971.26
 20
5579116.28
  0
VERTEX
  8
kraweznik
 10
6420969.88
 20
5579115.78
  0
VERTEX
  8
kraweznik
 10
6420969.16
 20
5579115.68
 30
460.74
  0
VERTEX
  8
kraweznik
 10
6420967.97
 20
5579115.89
  0
VERTEX
  8
kraweznik
 10
6420967.46
 20
5579116.73
  0
VERTEX
  8
kraweznik
 10
6420967.61
 20
5579117.93
  0
SEQEND
  8
kraweznik
  0
POLYLINE
  8
kraweznik
 40
0.13
 41
0.13
  6
CONTINUOUS
 62
36
 66
1
  0
VERTEX
  8
kraweznik
 10
6420996.51
 20
5579136.01
 30
462.96
  0
VERTEX
  8
kraweznik
 10
6420993.05
 20
5579134.70
 30
463.28
  0
VERTEX
  8
kraweznik
 10
6420991.18
 20
5579134.43
 30
462.80
  0
VERTEX
  8
kraweznik
 10
6420989.80
 20
5579134.69
 30
462.88
  0
VERTEX
  8
kraweznik
 10
6420989.17
 20
5579134.99
 30
462.92
  0
VERTEX
  8
kraweznik
 10
6420988.66
 20
5579135.43
 30
462.81
  0
VERTEX
  8
kraweznik
 10
6420988.25
 20
5579136.17
 30
462.81
  0
VERTEX
  8
kraweznik
 10
6420988.06
 20
5579137.89
 30
462.89
  0
VERTEX
  8
kraweznik
 10
6420988.45
 20
5579140.49
 30
462.86
  0
VERTEX
  8
kraweznik
 10
6420989.59
 20
5579143.85
 30
463.05
  0
VERTEX
  8
kraweznik
 10
6420990.68
 20
5579146.51
 30
462.92
  0
VERTEX
  8
kraweznik
 10
6420991.08
 20
5579147.10
  0
VERTEX
  8
kraweznik
 10
6420992.76
 20
5579148.42
 30
463.43
  0
VERTEX
  8
kraweznik
 10
6420995.34
 20
5579150.00
 30
463.43
  0
SEQEND
  8
kraweznik
  0
POLYLINE
  8
kraweznik
 40
0.13
 41
0.13
  6
CONTINUOUS
 62
36
 66
1
  0
VERTEX
  8
kraweznik
 10
6421001.16
 20
5579174.23
  0
VERTEX
  8
kraweznik
 10
6420996.71
 20
5579167.13
  0
VERTEX
  8
kraweznik
 10
6420991.71
 20
5579159.68
  0
VERTEX
  8
kraweznik
 10
6420985.41
 20
5579151.08
 30
462.08
  0
VERTEX
  8
kraweznik
 10
6420974.66
 20
5579137.25
 30
462.08
  0
SEQEND
  8
kraweznik
  0
POLYLINE
  8
kraweznik
 40
0.13
 41
0.13
  6
CONTINUOUS
 62
36
 66
1
  0
VERTEX
  8
kraweznik
 10
6421010.35
 20
5579160.16
  0
VERTEX
  8
kraweznik
 10
6421008.81
 20
5579160.03
  0
VERTEX
  8
kraweznik
 10
6421007.00
 20
5579160.04
 30
464.45
  0
VERTEX
  8
kraweznik
 10
6421005.42
 20
5579160.45
 30
66666666666666662400.00
  0
VERTEX
  8
kraweznik
 10
6421004.82
 20
5579160.93
  0
VERTEX
  8
kraweznik
 10
6421004.48
 20
5579161.77
 30
66666666666666675200.00
  0
VERTEX
  8
kraweznik
 10
6421004.61
 20
5579163.68
  0
VERTEX
  8
kraweznik
 10
6421005.40
 20
5579165.30
  0
VERTEX
  8
kraweznik
 10
6421006.51
 20
5579166.83
  0
SEQEND
  8
kraweznik
  0
POLYLINE
  8
kraweznik
 40
0.13
 41
0.13
  6
CONTINUOUS
 62
36
 66
1
  0
VERTEX
  8
kraweznik
 10
6421020.17
 20
5579184.11
 30
464.35
  0
VERTEX
  8
kraweznik
 10
6421006.51
 20
5579166.83
  0
SEQEND
  8
kraweznik
  0
POLYLINE
  8
kraweznik
 40
0.13
 41
0.13
  6
CONTINUOUS
 62
36
 66
1
  0
VERTEX
  8
kraweznik
 10
6421054.81
 20
5579245.28
  0
VERTEX
  8
kraweznik
 10
6421056.31
 20
5579245.78
  0
VERTEX
  8
kraweznik
 10
6421057.66
 20
5579245.73
  0
VERTEX
  8
kraweznik
 10
6421058.71
 20
5579245.38
  0
VERTEX
  8
kraweznik
 10
6421059.15
 20
5579245.01
  0
VERTEX
  8
kraweznik
 10
6421059.46
 20
5579244.53
  0
VERTEX
  8
kraweznik
 10
6421059.51
 20
5579243.53
  0
VERTEX
  8
kraweznik
 10
6421059.26
 20
5579242.48
  0
VERTEX
  8
kraweznik
 10
6421058.81
 20
5579241.68
  0
SEQEND
  8
kraweznik
  0
POLYLINE
  8
kraweznik
 40
0.13
 41
0.13
  6
CONTINUOUS
 62
36
 66
1
  0
VERTEX
  8
kraweznik
 10
6421017.21
 20
5579188.63
  0
VERTEX
  8
kraweznik
 10
6421016.46
 20
5579187.73
  0
VERTEX
  8
kraweznik
 10
6421015.56
 20
5579187.23
  0
VERTEX
  8
kraweznik
 10
6421014.61
 20
5579187.18
 30
464.04
  0
VERTEX
  8
kraweznik
 10
6421013.80
 20
5579187.42
  0
VERTEX
  8
kraweznik
 10
6421013.41
 20
5579187.92
 30
50000000000000000000.00
  0
VERTEX
  8
kraweznik
 10
6421013.16
 20
5579188.53
  0
VERTEX
  8
kraweznik
 10
6421012.96
 20
5579190.18
  0
VERTEX
  8
kraweznik
 10
6421013.36
 20
5579192.28
  0
SEQEND
  8
kraweznik
  0
POLYLINE
  8
kraweznik
 40
0.13
 41
0.13
  6
CONTINUOUS
 62
36
 66
1
  0
VERTEX
  8
kraweznik
 10
6421046.65
 20
5579210.87
 30
465.10
  0
VERTEX
  8
kraweznik
 10
6421044.07
 20
5579211.08
 30
464.84
  0
VERTEX
  8
kraweznik
 10
6421041.43
 20
5579210.60
 30
465.04
  0
VERTEX
  8
kraweznik
 10
6421040.62
 20
5579210.22
  0
VERTEX
  8
kraweznik
 10
6421039.67
 20
5579209.27
 30
33333333333333337600.00
  0
VERTEX
  8
kraweznik
 10
6421039.25
 20
5579208.73
 30
464.68
  0
VERTEX
  8
kraweznik
 10
6421037.17
 20
5579205.89
 30
464.35
  0
VERTEX
  8
kraweznik
 10
6421020.17
 20
5579184.11
 30
464.35
  0
SEQEND
  8
kraweznik
  0
POLYLINE
  8
kraweznik
 40
0.13
 41
0.13
  6
CONTINUOUS
 62
36
 66
1
  0
VERTEX
  8
kraweznik
 10
6421047.91
 20
5579219.22
  0
VERTEX
  8
kraweznik
 10
6421047.58
 20
5579218.51
 30
50000000000000000000.00
  0
VERTEX
  8
kraweznik
 10
6421047.51
 20
5579217.68
  0
VERTEX
  8
kraweznik
 10
6421047.56
 20
5579216.28
  0
VERTEX
  8
kraweznik
 10
6421047.96
 20
5579214.93
 30
465.44
  0
VERTEX
  8
kraweznik
 10
6421048.23
 20
5579214.36
 30
50000000000000000000.00
  0
VERTEX
  8
kraweznik
 10
6421048.62
 20
5579213.88
  0
VERTEX
  8
kraweznik
 10
6421049.33
 20
5579213.56
 30
50000000000000000000.00
  0
VERTEX
  8
kraweznik
 10
6421050.11
 20
5579213.43
  0
VERTEX
  8
kraweznik
 10
6421051.12
 20
5579213.36
  0
VERTEX
  8
kraweznik
 10
6421052.11
 20
5579213.53
  0
VERTEX
  8
kraweznik
 10
6421052.82
 20
5579213.93
  0
VERTEX
  8
kraweznik
 10
6421053.36
 20
5579214.53
  0
VERTEX
  8
kraweznik
 10
6421053.61
 20
5579215.38
  0
VERTEX
  8
kraweznik
 10
6421053.61
 20
5579216.28
  0
VERTEX
  8
kraweznik
 10
6421053.11
 20
5579217.78
  0
VERTEX
  8
kraweznik
 10
6421052.31
 20
5579219.08
 30
465.35
  0
VERTEX
  8
kraweznik
 10
6421051.96
 20
5579219.57
 30
50000000000000000000.00
  0
VERTEX
  8
kraweznik
 10
6421051.50
 20
5579219.92
 30
465.09
  0
VERTEX
  8
kraweznik
 10
6421050.58
 20
5579220.09
 30
465.15
  0
VERTEX
  8
kraweznik
 10
6421049.60
 20
5579220.02
 30
465.22
  0
VERTEX
  8
kraweznik
 10
6421048.68
 20
5579219.73
 30
465.29
  0
VERTEX
  8
kraweznik
 10
6421047.91
 20
5579219.22
 30
465.09
  0
SEQEND
  8
kraweznik
  0
POLYLINE
  8
kraweznik
 40
0.13
 41
0.13
  6
CONTINUOUS
 62
36
 66
1
  0
VERTEX
  8
kraweznik
 10
6421010.35
 20
5579213.15
  0
VERTEX
  8
kraweznik
 10
6421011.75
 20
5579214.05
  0
VERTEX
  8
kraweznik
 10
6421012.31
 20
5579214.31
  0
VERTEX
  8
kraweznik
 10
6421012.90
 20
5579214.45
 30
462.03
  0
VERTEX
  8
kraweznik
 10
6421013.99
 20
5579214.12
  0
VERTEX
  8
kraweznik
 10
6421014.51
 20
5579213.75
 30
50000000000000000000.00
  0
VERTEX
  8
kraweznik
 10
6421014.90
 20
5579213.25
  0
VERTEX
  8
kraweznik
 10
6421015.05
 20
5579212.20
 30
462.40
  0
VERTEX
  8
kraweznik
 10
6421014.12
 20
5579208.81
 30
80000000000000000000.00
  0
VERTEX
  8
kraweznik
 10
6421014.02
 20
5579208.55
 30
462.40
  0
SEQEND
  8
kraweznik
  0
POLYLINE
  8
kraweznik
 40
0.13
 41
0.13
  6
CONTINUOUS
 62
36
 66
1
  0
VERTEX
  8
kraweznik
 10
6420901.05
 20
5579075.89
  0
VERTEX
  8
kraweznik
 10
6420899.36
 20
5579076.07
  0
VERTEX
  8
kraweznik
 10
6420898.07
 20
5579076.28
  0
VERTEX
  8
kraweznik
 10
6420897.32
 20
5579076.65
  0
VERTEX
  8
kraweznik
 10
6420896.72
 20
5579077.21
  0
VERTEX
  8
kraweznik
 10
6420896.04
 20
5579079.14
  0
VERTEX
  8
kraweznik
 10
6420895.76
 20
5579081.29
  0
SEQEND
  8
kraweznik
  0
POLYLINE
  8
kraweznik
 40
0.13
 41
0.13
  6
CONTINUOUS
 62
36
 66
1
  0
VERTEX
  8
kraweznik
 10
6421010.00
 20
5579223.04
  0
VERTEX
  8
kraweznik
 10
6421010.72
 20
5579221.48
  0
VERTEX
  8
kraweznik
 10
6421011.08
 20
5579220.40
  0
VERTEX
  8
kraweznik
 10
6421011.20
 20
5579219.08
  0
VERTEX
  8
kraweznik
 10
6421010.90
 20
5579218.06
  0
VERTEX
  8
kraweznik
 10
6421010.42
 20
5579216.92
  0
VERTEX
  8
kraweznik
 10
6421009.18
 20
5579216.01
  0
VERTEX
  8
kraweznik
 10
6421008.86
 20
5579215.84
  0
SEQEND
  8
kraweznik
  0
POLYLINE
  8
kraweznik
 40
0.13
 41
0.13
  6
CONTINUOUS
 62
36
 66
1
  0
VERTEX
  8
kraweznik
 10
6421056.75
 20
5579219.95
 30
465.67
  0
VERTEX
  8
kraweznik
 10
6421055.81
 20
5579221.60
 30
465.32
  0
VERTEX
  8
kraweznik
 10
6421055.32
 20
5579224.48
 30
465.53
  0
VERTEX
  8
kraweznik
 10
6421055.24
 20
5579226.44
 30
465.18
  0
VERTEX
  8
kraweznik
 10
6421055.34
 20
5579229.20
 30
465.18
  0
SEQEND
  8
kraweznik
  0
POLYLINE
  8
kraweznik
 40
0.13
 41
0.13
  6
CONTINUOUS
 62
36
 66
1
  0
VERTEX
  8
kraweznik
 10
6420918.96
 20
5579075.20
 30
455.59
  0
VERTEX
  8
kraweznik
 10
6420934.64
 20
5579086.73
 30
457.43
  0
SEQEND
  8
kraweznik
  0
POLYLINE
  8
kraweznik
 40
0.13
 41
0.13
  6
CONTINUOUS
 62
36
 66
1
  0
VERTEX
  8
kraweznik
 10
6420934.64
 20
5579086.73
 30
457.43
  0
VERTEX
  8
kraweznik
 10
6420942.63
 20
5579093.29
 30
458.25
  0
SEQEND
  8
kraweznik
  0
POLYLINE
  8
kraweznik
 40
0.13
 41
0.13
  6
CONTINUOUS
 62
36
 66
1
  0
VERTEX
  8
kraweznik
 10
6420942.63
 20
5579093.29
 30
458.25
  0
VERTEX
  8
kraweznik
 10
6420955.95
 20
5579105.96
 30
459.50
  0
SEQEND
  8
kraweznik
  0
POLYLINE
  8
kraweznik
 40
0.13
 41
0.13
  6
CONTINUOUS
 62
36
 66
1
  0
VERTEX
  8
kraweznik
 10
6420955.95
 20
5579105.96
 30
459.50
  0
VERTEX
  8
kraweznik
 10
6420958.16
 20
5579107.59
 30
459.74
  0
VERTEX
  8
kraweznik
 10
6420960.98
 20
5579108.71
 30
459.90
  0
VERTEX
  8
kraweznik
 10
6420963.56
 20
5579109.38
 30
460.14
  0
VERTEX
  8
kraweznik
 10
6420973.94
 20
5579111.67
 30
461.04
  0
SEQEND
  8
kraweznik
  0
POLYLINE
  8
kraweznik
 40
0.13
 41
0.13
  6
CONTINUOUS
 62
36
 66
1
  0
VERTEX
  8
kraweznik
 10
6420901.05
 20
5579075.89
 30
453.91
  0
VERTEX
  8
kraweznik
 10
6420907.39
 20
5579077.10
 30
454.73
  0
VERTEX
  8
kraweznik
 10
6420914.51
 20
5579080.22
 30
455.48
  0
SEQEND
  8
kraweznik
  0
POLYLINE
  8
kraweznik
 40
0.13
 41
0.13
  6
CONTINUOUS
 62
36
 66
1
  0
VERTEX
  8
kraweznik
 10
6420914.51
 20
5579080.22
 30
455.48
  0
VERTEX
  8
kraweznik
 10
6420916.65
 20
5579081.82
 30
455.82
  0
VERTEX
  8
kraweznik
 10
6420930.95
 20
5579091.70
 30
457.25
  0
SEQEND
  8
kraweznik
  0
POLYLINE
  8
kraweznik
 40
0.13
 41
0.13
  6
CONTINUOUS
 62
36
 66
1
  0
VERTEX
  8
kraweznik
 10
6420930.95
 20
5579091.70
 30
457.25
  0
VERTEX
  8
kraweznik
 10
6420938.51
 20
5579097.96
 30
458.18
  0
SEQEND
  8
kraweznik
  0
POLYLINE
  8
kraweznik
 40
0.13
 41
0.13
  6
CONTINUOUS
 62
36
 66
1
  0
VERTEX
  8
kraweznik
 10
6420938.51
 20
5579097.96
 30
458.18
  0
VERTEX
  8
kraweznik
 10
6420942.84
 20
5579101.74
 30
458.50
  0
VERTEX
  8
kraweznik
 10
6420946.88
 20
5579105.80
 30
459.01
  0
VERTEX
  8
kraweznik
 10
6420951.50
 20
5579110.45
 30
459.52
  0
SEQEND
  8
kraweznik
  0
POLYLINE
  8
kraweznik
 40
0.13
 41
0.13
  6
CONTINUOUS
 62
36
 66
1
  0
VERTEX
  8
kraweznik
 10
6420951.50
 20
5579110.45
 30
459.52
  0
VERTEX
  8
kraweznik
 10
6420955.18
 20
5579114.26
 30
459.93
  0
SEQEND
  8
kraweznik
  0
POLYLINE
  8
kraweznik
 40
0.13
 41
0.13
  6
CONTINUOUS
 62
36
 66
1
  0
VERTEX
  8
kraweznik
 10
6420955.18
 20
5579114.26
 30
459.93
  0
VERTEX
  8
kraweznik
 10
6420961.07
 20
5579120.57
 30
460.65
  0
SEQEND
  8
kraweznik
  0
POLYLINE
  8
kraweznik
 40
0.13
 41
0.13
  6
CONTINUOUS
 62
36
 66
1
  0
VERTEX
  8
kraweznik
 10
6420974.60
 20
5579137.33
 30
462.18
  0
VERTEX
  8
kraweznik
 10
6420961.07
 20
5579120.57
 30
460.65
  0
SEQEND
  8
kraweznik
  0
POLYLINE
  8
kraweznik
 40
0.13
 41
0.13
  6
CONTINUOUS
 62
36
 66
1
  0
VERTEX
  8
kraweznik
 10
6420980.13
 20
5579132.46
 30
462.15
  0
VERTEX
  8
kraweznik
 10
6420967.61
 20
5579117.93
  0
SEQEND
  8
kraweznik
  0
POLYLINE
  8
kraweznik
 40
0.13
 41
0.13
  6
CONTINUOUS
 62
36
 66
1
  0
VERTEX
  8
kraweznik
 10
6420973.94
 20
5579111.67
 30
461.04
  0
VERTEX
  8
kraweznik
 10
6420990.90
 20
5579115.65
  0
VERTEX
  8
kraweznik
 10
6420996.51
 20
5579136.01
 30
463.41
  0
SEQEND
  8
kraweznik
  0
POLYLINE
  8
kraweznik
 40
0.13
 41
0.13
  6
CONTINUOUS
 62
36
 66
1
  0
VERTEX
  8
kraweznik
 10
6420995.34
 20
5579150.00
 30
463.43
  0
VERTEX
  8
kraweznik
 10
6421009.91
 20
5579154.67
 30
465.39
  0
SEQEND
  8
kraweznik
  0
POLYLINE
  8
kraweznik
 40
0.13
 41
0.13
  6
CONTINUOUS
 62
36
 66
1
  0
VERTEX
  8
kraweznik
 10
6421009.91
 20
5579154.67
 30
465.39
  0
VERTEX
  8
kraweznik
 10
6421013.91
 20
5579156.08
  0
SEQEND
  8
kraweznik
  0
POLYLINE
  8
kraweznik
 40
0.13
 41
0.13
  6
CONTINUOUS
 62
36
 66
1
  0
VERTEX
  8
kraweznik
 10
6421012.41
 20
5579160.93
  0
VERTEX
  8
kraweznik
 10
6421010.35
 20
5579160.16
 30
465.48
  0
SEQEND
  8
kraweznik
  0
POLYLINE
  8
kraweznik
 40
0.13
 41
0.13
  6
CONTINUOUS
 62
36
 66
1
  0
VERTEX
  8
kraweznik
 10
6421058.81
 20
5579241.68
  0
VERTEX
  8
kraweznik
 10
6421051.46
 20
5579232.42
 30
465.18
  0
VERTEX
  8
kraweznik
 10
6421044.70
 20
5579223.93
 30
465.17
  0
VERTEX
  8
kraweznik
 10
6421033.11
 20
5579209.11
 30
464.88
  0
VERTEX
  8
kraweznik
 10
6421026.00
 20
5579199.86
 30
464.49
  0
VERTEX
  8
kraweznik
 10
6421017.21
 20
5579188.63
  0
SEQEND
  8
kraweznik
  0
POLYLINE
  8
kraweznik
 40
0.13
 41
0.13
  6
CONTINUOUS
 62
36
 66
1
  0
VERTEX
  8
kraweznik
 10
6421055.34
 20
5579229.20
 30
465.18
  0
VERTEX
  8
kraweznik
 10
6421063.97
 20
5579240.11
 30
465.37
  0
SEQEND
  8
kraweznik
  0
POLYLINE
  8
kraweznik
 40
0.13
 41
0.13
  6
CONTINUOUS
 62
36
 66
1
  0
VERTEX
  8
kraweznik
 10
6421075.22
 20
5579254.57
 30
466.04
  0
VERTEX
  8
kraweznik
 10
6421063.97
 20
5579240.11
 30
465.37
  0
SEQEND
  8
kraweznik
  0
POLYLINE
  8
kraweznik
 40
0.13
 41
0.13
  6
CONTINUOUS
 62
36
 66
1
  0
VERTEX
  8
kraweznik
 10
6421054.81
 20
5579245.28
  0
VERTEX
  8
kraweznik
 10
6421053.08
 20
5579244.51
 30
464.42
  0
VERTEX
  8
kraweznik
 10
6421035.70
 20
5579231.63
 30
463.19
  0
VERTEX
  8
kraweznik
 10
6421031.34
 20
5579228.27
 30
462.97
  0
VERTEX
  8
kraweznik
 10
6421020.79
 20
5579219.32
 30
462.24
  0
SEQEND
  8
kraweznik
  0
POLYLINE
  8
kraweznik
 40
0.13
 41
0.13
  6
CONTINUOUS
 62
36
 66
1
  0
VERTEX
  8
kraweznik
 10
6421016.97
 20
5579206.35
 30
462.83
  0
VERTEX
  8
kraweznik
 10
6421018.70
 20
5579212.45
  0
VERTEX
  8
kraweznik
 10
6421020.79
 20
5579219.32
 30
462.24
  0
SEQEND
  8
kraweznik
  0
POLYLINE
  8
kraweznik
 40
0.13
 41
0.13
  6
CONTINUOUS
 62
36
 66
1
  0
VERTEX
  8
kraweznik
 10
6421013.36
 20
5579192.28
  0
VERTEX
  8
kraweznik
 10
6421016.97
 20
5579206.35
 30
462.83
  0
SEQEND
  8
kraweznik
  0
POLYLINE
  8
kraweznik
 40
0.13
 41
0.13
  6
CONTINUOUS
 62
36
 66
1
  0
VERTEX
  8
kraweznik
 10
6421001.16
 20
5579174.23
 30
463.92
  0
VERTEX
  8
kraweznik
 10
6421004.40
 20
5579180.10
  0
VERTEX
  8
kraweznik
 10
6421008.45
 20
5579190.32
 30
463.64
  0
SEQEND
  8
kraweznik
  0
POLYLINE
  8
kraweznik
 40
0.13
 41
0.13
  6
CONTINUOUS
 62
36
 66
1
  0
VERTEX
  8
kraweznik
 10
6421008.45
 20
5579190.32
 30
463.64
  0
VERTEX
  8
kraweznik
 10
6421011.40
 20
5579199.90
  0
VERTEX
  8
kraweznik
 10
6421014.02
 20
5579208.55
 30
462.40
  0
SEQEND
  8
kraweznik
  0
POLYLINE
  8
kraweznik
 40
0.13
 41
0.13
  6
CONTINUOUS
 62
36
 66
1
  0
VERTEX
  8
kraweznik
 10
6420913.15
 20
5579069.28
 30
454.87
  0
VERTEX
  8
kraweznik
 10
6420908.73
 20
5579066.40
  0
VERTEX
  8
kraweznik
 10
6420907.65
 20
5579064.50
  0
VERTEX
  8
kraweznik
 10
6420907.32
 20
5579062.52
 30
453.67
  0
VERTEX
  8
kraweznik
 10
6420907.30
 20
5579059.37
 30
453.41
  0
SEQEND
  8
kraweznik
  0
POLYLINE
  8
kraweznik
 40
0.13
 41
0.13
  6
CONTINUOUS
 62
36
 66
1
  0
VERTEX
  8
kraweznik
 10
6421034.48
 20
5579255.56
  0
VERTEX
  8
kraweznik
 10
6421022.90
 20
5579233.96
  0
VERTEX
  8
kraweznik
 10
6421023.21
 20
5579233.73
 30
462.38
  0
SEQEND
  8
kraweznik
  0
POLYLINE
  8
kraweznik
 40
0.13
 41
0.13
  6
CONTINUOUS
 62
36
 66
1
  0
VERTEX
  8
kraweznik
 10
6421030.70
 20
5579257.06
  0
VERTEX
  8
kraweznik
 10
6421020.80
 20
5579238.40
  0
VERTEX
  8
kraweznik
 10
6421014.74
 20
5579225.74
  0
VERTEX
  8
kraweznik
 10
6421013.84
 20
5579224.96
  0
VERTEX
  8
kraweznik
 10
6421012.34
 20
5579224.06
  0
VERTEX
  8
kraweznik
 10
6421010.00
 20
5579223.04
  0
SEQEND
  8
kraweznik
  0
POLYLINE
  8
kraweznik
 40
0.13
 41
0.13
  6
CONTINUOUS
 62
36
 66
1
  0
VERTEX
  8
kraweznik
 10
6421027.03
 20
5579231.18
 30
462.76
  0
VERTEX
  8
kraweznik
 10
6421027.52
 20
5579230.94
  0
VERTEX
  8
kraweznik
 10
6421046.36
 20
5579244.99
 30
464.11
  0
VERTEX
  8
kraweznik
 10
6421053.87
 20
5579250.57
 30
464.67
  0
VERTEX
  8
kraweznik
 10
6421068.38
 20
5579260.64
  0
SEQEND
  8
kraweznik
  0
POLYLINE
  8
opisy
 40
0.07
 41
0.07
  6
CONTINUOUS
 62
7
 66
1
  0
VERTEX
  8
opisy
 10
6420909.67
 20
5579080.75
  0
VERTEX
  8
opisy
 10
6420906.27
 20
5579080.75
  0
VERTEX
  8
opisy
 10
6420907.24
 20
5579077.46
 30
454.85
  0
SEQEND
  8
opisy
  0
POLYLINE
  8
opisy
 40
0.07
 41
0.07
  6
CONTINUOUS
 62
7
 66
1
  0
VERTEX
  8
opisy
 10
6420915.65
 20
5579071.66
  0
VERTEX
  8
opisy
 10
6420912.25
 20
5579071.66
  0
VERTEX
  8
opisy
 10
6420911.83
 20
5579072.48
 30
454.94
  0
SEQEND
  8
opisy
  0
POLYLINE
  8
os_profilu
 40
0.13
 41
0.13
  6
CONTINUOUS
 62
7
 66
1
  0
VERTEX
  8
os_profilu
 10
6421071.89
 20
5579257.48
 30
466.05
  0
VERTEX
  8
os_profilu
 10
6421061.91
 20
5579242.21
 30
465.45
  0
VERTEX
  8
os_profilu
 10
6421053.38
 20
5579230.88
 30
465.22
  0
VERTEX
  8
os_profilu
 10
6421035.08
 20
5579207.63
 30
464.82
  0
VERTEX
  8
os_profilu
 10
6421028.02
 20
5579198.47
 30
464.60
  0
VERTEX
  8
os_profilu
 10
6421017.68
 20
5579185.35
 30
464.30
  0
VERTEX
  8
os_profilu
 10
6421005.64
 20
5579171.06
 30
464.05
  0
VERTEX
  8
os_profilu
 10
6420983.30
 20
5579143.40
  0
VERTEX
  8
os_profilu
 10
6420976.67
 20
5579135.55
 30
462.18
  0
VERTEX
  8
os_profilu
 10
6420963.73
 20
5579118.78
 30
460.73
  0
VERTEX
  8
os_profilu
 10
6420940.54
 20
5579095.66
 30
458.19
  0
VERTEX
  8
os_profilu
 10
6420932.69
 20
5579089.38
 30
457.36
  0
VERTEX
  8
os_profilu
 10
6420916.83
 20
5579077.27
 30
455.58
  0
VERTEX
  8
os_profilu
 10
6420903.91
 20
5579069.70
 30
454.07
  0
SEQEND
  8
os_profilu
  0
POLYLINE
  8
os_profilu
 40
0.13
 41
0.13
  6
CONTINUOUS
 62
7
 66
1
  0
VERTEX
  8
os_profilu
 10
6421063.97
 20
5579240.11
 30
465.37
  0
VERTEX
  8
os_profilu
 10
6421061.91
 20
5579242.21
 30
465.45
  0
VERTEX
  8
os_profilu
 10
6421060.38
 20
5579243.80
 30
465.42
  0
VERTEX
  8
os_profilu
 10
6421056.95
 20
5579247.33
 30
464.85
  0
VERTEX
  8
os_profilu
 10
6421053.87
 20
5579250.57
 30
464.67
  0
VERTEX
  8
os_profilu
 10
6421053.04
 20
5579251.82
 30
464.82
  0
SEQEND
  8
os_profilu
  0
POLYLINE
  8
os_profilu
 40
0.13
 41
0.13
  6
CONTINUOUS
 62
7
 66
1
  0
VERTEX
  8
os_profilu
 10
6421055.34
 20
5579229.20
 30
465.18
  0
VERTEX
  8
os_profilu
 10
6421053.38
 20
5579230.88
 30
465.22
  0
VERTEX
  8
os_profilu
 10
6421051.46
 20
5579232.42
 30
465.18
  0
VERTEX
  8
os_profilu
 10
6421050.50
 20
5579233.13
 30
465.30
  0
SEQEND
  8
os_profilu
  0
POLYLINE
  8
os_profilu
 40
0.13
 41
0.13
  6
CONTINUOUS
 62
7
 66
1
  0
VERTEX
  8
os_profilu
 10
6421037.23
 20
5579205.80
 30
464.78
  0
VERTEX
  8
os_profilu
 10
6421037.17
 20
5579205.89
 30
464.68
  0
VERTEX
  8
os_profilu
 10
6421035.08
 20
5579207.63
 30
464.82
  0
VERTEX
  8
os_profilu
 10
6421033.22
 20
5579209.06
 30
464.75
  0
VERTEX
  8
os_profilu
 10
6421033.11
 20
5579209.11
 30
464.88
  0
VERTEX
  8
os_profilu
 10
6421032.26
 20
5579209.87
 30
464.90
  0
VERTEX
  8
os_profilu
 10
6421030.22
 20
5579211.55
 30
464.80
  0
VERTEX
  8
os_profilu
 10
6421022.00
 20
5579218.29
 30
462.36
  0
VERTEX
  8
os_profilu
 10
6421020.85
 20
5579219.31
 30
462.33
  0
VERTEX
  8
os_profilu
 10
6421018.13
 20
5579221.51
 30
461.87
  0
VERTEX
  8
os_profilu
 10
6421013.61
 20
5579225.22
 30
461.67
  0
SEQEND
  8
os_profilu
  0
POLYLINE
  8
os_profilu
 40
0.13
 41
0.13
  6
CONTINUOUS
 62
7
 66
1
  0
VERTEX
  8
os_profilu
 10
6421030.58
 20
5579196.64
 30
464.61
  0
VERTEX
  8
os_profilu
 10
6421012.07
 20
5579209.82
 30
462.53
  0
SEQEND
  8
os_profilu
  0
POLYLINE
  8
os_profilu
 40
0.13
 41
0.13
  6
CONTINUOUS
 62
7
 66
1
  0
VERTEX
  8
os_profilu
 10
6421020.17
 20
5579184.11
 30
464.35
  0
VERTEX
  8
os_profilu
 10
6421014.30
 20
5579187.19
  0
VERTEX
  8
os_profilu
 10
6421008.45
 20
5579190.32
 30
463.64
  0
SEQEND
  8
os_profilu
  0
POLYLINE
  8
os_profilu
 40
0.13
 41
0.13
  6
CONTINUOUS
 62
7
 66
1
  0
VERTEX
  8
os_profilu
 10
6421008.45
 20
5579169.16
 30
464.05
  0
VERTEX
  8
os_profilu
 10
6421001.16
 20
5579174.23
 30
463.92
  0
SEQEND
  8
os_profilu
  0
POLYLINE
  8
os_profilu
 40
0.13
 41
0.13
  6
CONTINUOUS
 62
7
 66
1
  0
VERTEX
  8
os_profilu
 10
6420982.21
 20
5579130.66
 30
462.31
  0
VERTEX
  8
os_profilu
 10
6420980.13
 20
5579132.46
 30
462.15
  0
VERTEX
  8
os_profilu
 10
6420974.66
 20
5579137.25
 30
462.08
  0
VERTEX
  8
os_profilu
 10
6420973.48
 20
5579138.20
 30
462.23
  0
SEQEND
  8
os_profilu
  0
POLYLINE
  8
os_profilu
 40
0.13
 41
0.13
  6
CONTINUOUS
 62
7
 66
1
  0
VERTEX
  8
os_profilu
 10
6420957.46
 20
5579104.34
 30
459.70
  0
VERTEX
  8
os_profilu
 10
6420950.41
 20
5579111.50
 30
459.67
  0
SEQEND
  8
os_profilu
  0
POLYLINE
  8
os_profilu
 40
0.13
 41
0.13
  6
CONTINUOUS
 62
7
 66
1
  0
VERTEX
  8
os_profilu
 10
6420935.33
 20
5579085.80
 30
457.40
  0
VERTEX
  8
os_profilu
 10
6420930.12
 20
5579092.81
 30
457.42
  0
SEQEND
  8
os_profilu
  0
POLYLINE
  8
os_profilu
 40
0.13
 41
0.13
  6
CONTINUOUS
 62
7
 66
1
  0
VERTEX
  8
os_profilu
 10
6420907.82
 20
5579061.62
 30
453.61
  0
VERTEX
  8
os_profilu
 10
6420900.32
 20
5579077.49
 30
454.02
  0
SEQEND
  8
os_profilu
  0
POLYLINE
  8
przerywana
 40
0.09
 41
0.09
  6
CONTINUOUS
 62
7
 66
1
  0
VERTEX
  8
przerywana
 10
6420913.15
 20
5579069.28
 30
454.87
  0
VERTEX
  8
przerywana
 10
6420918.96
 20
5579075.20
 30
455.59
  0
SEQEND
  8
przerywana
  0
POLYLINE
  8
przerywana
 40
0.09
 41
0.09
  6
CONTINUOUS
 62
7
 66
1
  0
VERTEX
  8
przerywana
 10
6420919.66
 20
5579074.14
 30
455.62
  0
VERTEX
  8
przerywana
 10
6420922.64
 20
5579070.12
 30
456.06
  0
SEQEND
  8
przerywana
  0
POLYLINE
  8
przerywana
 40
0.09
 41
0.09
  6
CONTINUOUS
 62
7
 66
1
  0
VERTEX
  8
przerywana
 10
6420913.40
 20
5579068.93
 30
454.81
  0
VERTEX
  8
przerywana
 10
6420914.54
 20
5579066.08
 30
455.33
  0
SEQEND
  8
przerywana
  0
POLYLINE
  8
przerywana
 40
0.09
 41
0.09
  6
CONTINUOUS
 62
7
 66
1
  0
VERTEX
  8
przerywana
 10
6420956.00
 20
5579105.93
 30
459.65
  0
VERTEX
  8
przerywana
 10
6420967.61
 20
5579117.93
  0
SEQEND
  8
przerywana
  0
POLYLINE
  8
przerywana
 40
0.09
 41
0.09
  6
CONTINUOUS
 62
7
 66
1
  0
VERTEX
  8
przerywana
 10
6420980.13
 20
5579132.46
 30
462.15
  0
VERTEX
  8
przerywana
 10
6420991.08
 20
5579147.10
 30
463.05
  0
SEQEND
  8
przerywana
  0
POLYLINE
  8
przerywana
 40
0.09
 41
0.09
  6
CONTINUOUS
 62
7
 66
1
  0
VERTEX
  8
przerywana
 10
6420991.08
 20
5579147.10
 30
463.05
  0
VERTEX
  8
przerywana
 10
6421006.51
 20
5579166.83
  0
SEQEND
  8
przerywana
  0
POLYLINE
  8
przerywana
 40
0.09
 41
0.09
  6
CONTINUOUS
 62
7
 66
1
  0
VERTEX
  8
przerywana
 10
6420945.26
 20
5579106.37
 30
459.06
  0
VERTEX
  8
przerywana
 10
6420946.71
 20
5579105.86
  0
VERTEX
  8
przerywana
 10
6420946.88
 20
5579105.80
 30
459.01
  0
SEQEND
  8
przerywana
  0
POLYLINE
  8
przerywana
 40
0.09
 41
0.09
  6
CONTINUOUS
 62
7
 66
1
  0
VERTEX
  8
przerywana
 10
6420942.30
 20
5579103.49
 30
458.76
  0
VERTEX
  8
przerywana
 10
6420942.84
 20
5579101.74
 30
458.50
  0
SEQEND
  8
przerywana
  0
POLYLINE
  8
przerywana
 40
0.09
 41
0.09
  6
CONTINUOUS
 62
7
 66
1
  0
VERTEX
  8
przerywana
 10
6421040.62
 20
5579210.22
 30
464.84
  0
VERTEX
  8
przerywana
 10
6421045.15
 20
5579216.15
 30
464.92
  0
VERTEX
  8
przerywana
 10
6421055.34
 20
5579229.20
 30
465.18
  0
SEQEND
  8
przerywana
  0
POLYLINE
  8
przerywana
 40
0.09
 41
0.09
  6
CONTINUOUS
 62
7
 66
1
  0
VERTEX
  8
przerywana
 10
6420914.54
 20
5579066.08
 30
455.33
  0
VERTEX
  8
przerywana
 10
6420913.56
 20
5579058.50
  0
SEQEND
  8
przerywana
  0
POLYLINE
  8
sytuacja
 40
0.07
 41
0.07
  6
CONTINUOUS
 62
7
 66
1
  0
VERTEX
  8
sytuacja
 10
6420916.04
 20
5579082.60
 30
455.83
  0
VERTEX
  8
sytuacja
 10
6420930.12
 20
5579092.81
 30
457.42
  0
VERTEX
  8
sytuacja
 10
6420935.79
 20
5579097.13
  0
SEQEND
  8
sytuacja
  0
POLYLINE
  8
sytuacja
 40
0.07
 41
0.07
  6
CONTINUOUS
 62
7
 66
1
  0
VERTEX
  8
sytuacja
 10
6420935.57
 20
5579097.46
  0
VERTEX
  8
sytuacja
 10
6420915.88
 20
5579082.89
  0
SEQEND
  8
sytuacja
  0
POLYLINE
  8
sytuacja
 40
0.07
 41
0.07
  6
CONTINUOUS
 62
7
 66
1
  0
VERTEX
  8
sytuacja
 10
6420915.88
 20
5579082.89
  0
VERTEX
  8
sytuacja
 10
6420916.04
 20
5579082.60
 30
455.83
  0
SEQEND
  8
sytuacja
  0
POLYLINE
  8
sytuacja
 40
0.07
 41
0.07
  6
CONTINUOUS
 62
7
 66
1
  0
VERTEX
  8
sytuacja
 10
6420921.98
 20
5579087.42
  0
VERTEX
  8
sytuacja
 10
6420922.07
 20
5579086.99
  0
SEQEND
  8
sytuacja
  0
POLYLINE
  8
sytuacja
 40
0.07
 41
0.07
  6
CONTINUOUS
 62
7
 66
1
  0
VERTEX
  8
sytuacja
 10
6420922.27
 20
5579087.62
  0
VERTEX
  8
sytuacja
 10
6420922.38
 20
5579087.20
  0
SEQEND
  8
sytuacja
  0
POLYLINE
  8
sytuacja
 40
0.07
 41
0.07
  6
CONTINUOUS
 62
7
 66
1
  0
VERTEX
  8
sytuacja
 10
6420927.24
 20
5579091.27
  0
VERTEX
  8
sytuacja
 10
6420927.33
 20
5579090.79
  0
SEQEND
  8
sytuacja
  0
POLYLINE
  8
sytuacja
 40
0.07
 41
0.07
  6
CONTINUOUS
 62
7
 66
1
  0
VERTEX
  8
sytuacja
 10
6420927.51
 20
5579091.45
  0
VERTEX
  8
sytuacja
 10
6420927.62
 20
5579091.00
  0
SEQEND
  8
sytuacja
  0
POLYLINE
  8
zakres_pomiaru
 40
0.35
 41
0.35
  6
CONTINUOUS
 62
7
 66
1
  0
VERTEX
  8
zakres_pomiaru
 10
6420898.65
 20
5579048.35
  0
VERTEX
  8
zakres_pomiaru
 10
6420911.43
 20
5579057.17
  0
VERTEX
  8
zakres_pomiaru
 10
6420962.37
 20
5579092.90
  0
VERTEX
  8
zakres_pomiaru
 10
6420975.60
 20
5579106.49
  0
VERTEX
  8
zakres_pomiaru
 10
6420998.19
 20
5579112.88
  0
VERTEX
  8
zakres_pomiaru
 10
6421005.12
 20
5579139.34
  0
VERTEX
  8
zakres_pomiaru
 10
6421017.90
 20
5579168.23
  0
VERTEX
  8
zakres_pomiaru
 10
6421063.62
 20
5579226.19
  0
VERTEX
  8
zakres_pomiaru
 10
6421091.07
 20
5579258.77
  0
VERTEX
  8
zakres_pomiaru
 10
6421073.07
 20
5579276.77
  0
VERTEX
  8
zakres_pomiaru
 10
6421042.47
 20
5579254.72
  0
VERTEX
  8
zakres_pomiaru
 10
6421012.86
 20
5579229.25
  0
VERTEX
  8
zakres_pomiaru
 10
6420997.74
 20
5579214.94
  0
VERTEX
  8
zakres_pomiaru
 10
6420995.85
 20
5579182.00
  0
VERTEX
  8
zakres_pomiaru
 10
6420944.19
 20
5579116.21
  0
VERTEX
  8
zakres_pomiaru
 10
6420883.44
 20
5579081.29
  0
VERTEX
  8
zakres_pomiaru
 10
6420898.65
 20
5579048.35
  0
SEQEND
  8
zakres_pomiaru
  0
TEXT
  8
kraweznik
 62
36
 10
6421039.68
 20
5579202.91
  1
pp8
 40
1.25
 50
321.10
 51
15.00
 41
0.62
  7
SIMPLEX
  0
TEXT
  8
opisy
 62
7
 10
6421008.80
 20
5579180.42
  1
317
 40
1.25
 50
0.00
 51
15.00
 41
0.62
  7
SIMPLEX
  0
TEXT
  8
opisy
 62
7
 10
6421008.80
 20
5579178.34
  1
dr
 40
1.25
 50
0.00
 51
15.00
 41
0.62
  7
SIMPLEX
  0
TEXT
  8
opisy
 62
7
 10
6420983.48
 20
5579120.25
  1
462,0
 40
0.90
 50
0.00
 51
15.00
 41
0.62
  7
SIMPLEX
  0
TEXT
  8
opisy
 62
7
 10
6420991.32
 20
5579115.79
  1
462,5
 40
0.90
 50
0.00
 51
15.00
 41
0.62
  7
SIMPLEX
  0
TEXT
  8
opisy
 62
7
 10
6420999.04
 20
5579134.03
  1
463,7
 40
0.90
 50
0.00
 51
15.00
 41
0.62
  7
SIMPLEX
  0
TEXT
  8
opisy
 62
7
 10
6420988.96
 20
5579135.71
  1
462,8
 40
0.90
 50
0.00
 51
15.00
 41
0.62
  7
SIMPLEX
  0
TEXT
  8
opisy
 62
7
 10
6420992.90
 20
5579140.35
  1
k
 40
0.90
 50
0.00
 51
15.00
 41
0.62
  7
SIMPLEX
  0
TEXT
  8
opisy
 62
7
 10
6420996.80
 20
5579136.27
  1
463,4
 40
0.90
 50
0.00
 51
15.00
 41
0.62
  7
SIMPLEX
  0
TEXT
  8
opisy
 62
7
 10
6421013.50
 20
5579198.83
  1
w
 40
0.90
 50
0.00
 51
15.00
 41
0.62
  7
SIMPLEX
  0
TEXT
  8
opisy
 62
7
 10
6421012.51
 20
5579196.94
  1
g
 40
0.90
 50
0.00
 51
15.00
 41
0.62
  7
SIMPLEX
  0
TEXT
  8
opisy
 62
7
 10
6421041.14
 20
5579214.94
  1
ul. Jadwigi, droga gminna Nr 119800
 40
0.75
 50
51.50
 51
15.00
 41
0.62
  7
SIMPLEX
  0
TEXT
  8
opisy
 62
7
 10
6420910.33
 20
5579064.99
  1
5046
 40
0.90
 50
0.00
 51
15.00
 41
0.62
  7
SIMPLEX
  0
TEXT
  8
opisy
 62
7
 10
6420993.22
 20
5579147.25
  1
5047
 40
0.90
 50
0.00
 51
15.00
 41
0.62
  7
SIMPLEX
  0
TEXT
  8
opisy
 62
7
 10
6421031.56
 20
5579226.45
  1
5048
 40
0.90
 50
0.00
 51
15.00
 41
0.62
  7
SIMPLEX
  0
TEXT
  8
opisy
 62
7
 10
6420906.62
 20
5579080.84
  1
484,85
 40
0.90
 50
0.00
 51
15.00
 41
0.62
  7
SIMPLEX
  0
TEXT
  8
opisy
 62
7
 10
6420912.60
 20
5579071.75
  1
454,94
 40
0.90
 50
0.00
 51
15.00
 41
0.62
  7
SIMPLEX
  0
TEXT
  8
opisy
 62
7
 10
6420912.35
 20
5579073.20
  1
k
 40
0.90
 50
0.00
 51
15.00
 41
0.62
  7
SIMPLEX
  0
TEXT
  8
opisy
 62
7
 10
6420908.10
 20
5579076.20
  1
k
 40
0.90
 50
0.00
 51
15.00
 41
0.62
  7
SIMPLEX
  0
TEXT
  8
opisy
 62
7
 10
6420899.95
 20
5579076.40
  1
k
 40
0.90
 50
0.00
 51
15.00
 41
0.62
  7
SIMPLEX
  0
TEXT
  8
opisy
 62
7
 10
6420915.10
 20
5579079.40
  1
k
 40
0.90
 50
0.00
 51
15.00
 41
0.62
  7
SIMPLEX
  0
TEXT
  8
opisy
 62
7
 10
6420916.20
 20
5579080.20
  1
k
 40
0.90
 50
0.00
 51
15.00
 41
0.62
  7
SIMPLEX
  0
TEXT
  8
opisy
 62
7
 10
6420921.20
 20
5579077.55
  1
k
 40
0.90
 50
0.00
 51
15.00
 41
0.62
  7
SIMPLEX
  0
TEXT
  8
opisy
 62
7
 10
6420917.35
 20
5579076.00
  1
k
 40
0.90
 50
0.00
 51
15.00
 41
0.62
  7
SIMPLEX
  0
TEXT
  8
opisy
 62
7
 10
6420935.85
 20
5579090.20
  1
k
 40
0.90
 50
0.00
 51
15.00
 41
0.62
  7
SIMPLEX
  0
TEXT
  8
opisy
 62
7
 10
6420956.55
 20
5579113.70
  1
k
 40
0.90
 50
0.00
 51
15.00
 41
0.62
  7
SIMPLEX
  0
TEXT
  8
opisy
 62
7
 10
6420985.70
 20
5579148.45
  1
k
 40
0.90
 50
0.00
 51
15.00
 41
0.62
  7
SIMPLEX
  0
TEXT
  8
opisy
 62
7
 10
6420995.70
 20
5579155.25
  1
g
 40
0.90
 50
0.00
 51
15.00
 41
0.62
  7
SIMPLEX
  0
TEXT
  8
opisy
 62
7
 10
6420991.55
 20
5579160.75
  1
g
 40
0.90
 50
0.00
 51
15.00
 41
0.62
  7
SIMPLEX
  0
TEXT
  8
opisy
 62
7
 10
6420997.40
 20
5579166.30
  1
k
 40
0.90
 50
0.00
 51
15.00
 41
0.62
  7
SIMPLEX
  0
TEXT
  8
opisy
 62
7
 10
6421005.55
 20
5579166.35
  1
k
 40
0.90
 50
0.00
 51
15.00
 41
0.62
  7
SIMPLEX
  0
TEXT
  8
opisy
 62
7
 10
6421019.25
 20
5579217.10
  1
k
 40
0.90
 50
0.00
 51
15.00
 41
0.62
  7
SIMPLEX
  0
TEXT
  8
opisy
 62
7
 10
6421016.90
 20
5579201.60
  1
g
 40
0.90
 50
0.00
 51
15.00
 41
0.62
  7
SIMPLEX
  0
TEXT
  8
opisy
 62
7
 10
6421019.25
 20
5579230.05
  1
w
 40
0.90
 50
0.00
 51
15.00
 41
0.62
  7
SIMPLEX
  0
TEXT
  8
opisy
 62
7
 10
6421059.25
 20
5579234.50
  1
k
 40
0.90
 50
0.00
 51
15.00
 41
0.62
  7
SIMPLEX
  0
TEXT
  8
opisy
 62
7
 10
6421051.80
 20
5579249.40
  1
k
 40
0.90
 50
0.00
 51
15.00
 41
0.62
  7
SIMPLEX
  0
TEXT
  8
opisy
 62
7
 10
6421042.85
 20
5579240.90
  1
k
 40
0.90
 50
0.00
 51
15.00
 41
0.62
  7
SIMPLEX
  0
TEXT
  8
opisy
 62
7
 10
6421023.90
 20
5579223.50
  1
k
 40
0.90
 50
0.00
 51
15.00
 41
0.62
  7
SIMPLEX
  0
TEXT
  8
opisy
 62
7
 10
6420991.56
 20
5579146.23
  1
k
 40
0.90
 50
0.00
 51
15.00
 41
0.62
  7
SIMPLEX
  0
TEXT
  8
opisy
 62
7
 10
6420961.64
 20
5579112.25
  1
k
 40
0.90
 50
0.00
 51
15.00
 41
0.62
  7
SIMPLEX
  0
TEXT
  8
opisy
 62
7
 10
6420941.07
 20
5579101.10
  1
g
 40
0.90
 50
0.00
 51
15.00
 41
0.62
  7
SIMPLEX
  0
TEXT
  8
opisy
 62
7
 10
6420919.10
 20
5579076.19
  1
k
 40
0.90
 50
0.00
 51
15.00
 41
0.62
  7
SIMPLEX
  0
TEXT
  8
opisy
 62
7
 10
6421009.74
 20
5579159.05
  1
k
 40
0.90
 50
0.00
 51
15.00
 41
0.62
  7
SIMPLEX
  0
TEXT
  8
opisy
 62
7
 10
6421011.92
 20
5579155.88
  1
k
 40
0.90
 50
0.00
 51
15.00
 41
0.62
  7
SIMPLEX
  0
TEXT
  8
opisy
 62
7
 10
6421010.60
 20
5579155.96
  1
k
 40
0.90
 50
0.00
 51
15.00
 41
0.62
  7
SIMPLEX
  0
TEXT
  8
os_profilu
 62
7
 10
6421066.80
 20
5579236.27
  1
pp10
 40
1.25
 50
319.50
 51
15.00
 41
0.62
  7
SIMPLEX
  0
TEXT
  8
os_profilu
 62
7
 10
6421058.40
 20
5579226.22
  1
pp9
 40
1.25
 50
323.00
 51
15.00
 41
0.62
  7
SIMPLEX
  0
TEXT
  8
os_profilu
 62
7
 10
6421032.77
 20
5579194.30
  1
pp7
 40
1.25
 50
325.70
 51
15.00
 41
0.62
  7
SIMPLEX
  0
TEXT
  8
os_profilu
 62
7
 10
6421025.70
 20
5579180.47
  1
pp6
 40
1.25
 50
333.40
 51
15.00
 41
0.62
  7
SIMPLEX
  0
TEXT
  8
os_profilu
 62
7
 10
6421011.11
 20
5579166.67
  1
pp5
 40
1.25
 50
327.40
 51
15.00
 41
0.62
  7
SIMPLEX
  0
TEXT
  8
os_profilu
 62
7
 10
6420983.58
 20
5579128.29
  1
pp4
 40
1.25
 50
323.10
 51
15.00
 41
0.62
  7
SIMPLEX
  0
TEXT
  8
os_profilu
 62
7
 10
6420958.20
 20
5579102.94
  1
pp3
 40
1.25
 50
321.50
 51
15.00
 41
0.62
  7
SIMPLEX
  0
TEXT
  8
os_profilu
 62
7
 10
6420936.55
 20
5579083.44
  1
pp2
 40
1.25
 50
315.50
 51
15.00
 41
0.62
  7
SIMPLEX
  0
TEXT
  8
os_profilu
 62
7
 10
6420908.67
 20
5579060.35
  1
pp1
 40
1.25
 50
311.70
 51
15.00
 41
0.62
  7
SIMPLEX
  0
TEXT
  8
os_profilu
 62
7
 10
6421065.18
 20
5579239.80
  1
465,37
 40
0.75
 50
50.00
 51
15.00
 41
0.62
  7
SIMPLEX
  0
TEXT
  8
os_profilu
 62
7
 10
6421063.02
 20
5579242.20
  1
465,45
 40
0.75
 50
50.00
 51
15.00
 41
0.62
  7
SIMPLEX
  0
TEXT
  8
os_profilu
 62
7
 10
6421061.28
 20
5579243.64
  1
465,42
 40
0.75
 50
50.00
 51
15.00
 41
0.62
  7
SIMPLEX
  0
TEXT
  8
os_profilu
 62
7
 10
6421058.04
 20
5579247.24
  1
464,87
 40
0.75
 50
50.00
 51
15.00
 41
0.62
  7
SIMPLEX
  0
TEXT
  8
os_profilu
 62
7
 10
6421055.28
 20
5579249.70
  1
464,67
 40
0.75
 50
50.00
 51
15.00
 41
0.62
  7
SIMPLEX
  0
TEXT
  8
os_profilu
 62
7
 10
6421054.68
 20
5579251.02
  1
464,78
 40
0.75
 50
50.00
 51
15.00
 41
0.62
  7
SIMPLEX
  0
TEXT
  8
os_profilu
 62
7
 10
6421053.42
 20
5579252.22
  1
464,82
 40
0.75
 50
50.00
 51
15.00
 41
0.62
  7
SIMPLEX
  0
TEXT
  8
os_profilu
 62
7
 10
6421055.30
 20
5579229.77
  1
465,18
 40
0.75
 50
50.00
 51
15.00
 41
0.62
  7
SIMPLEX
  0
TEXT
  8
os_profilu
 62
7
 10
6421054.34
 20
5579230.63
  1
465,22
 40
0.75
 50
50.00
 51
15.00
 41
0.62
  7
SIMPLEX
  0
TEXT
  8
os_profilu
 62
7
 10
6421052.46
 20
5579231.88
  1
465,18
 40
0.75
 50
50.00
 51
15.00
 41
0.62
  7
SIMPLEX
  0
TEXT
  8
os_profilu
 62
7
 10
6421051.54
 20
5579232.97
  1
465,30
 40
0.75
 50
50.00
 51
15.00
 41
0.62
  7
SIMPLEX
  0
TEXT
  8
os_profilu
 62
7
 10
6421048.77
 20
5579230.89
  1
465,30
 40
0.75
 50
50.00
 51
15.00
 41
0.62
  7
SIMPLEX
  0
TEXT
  8
os_profilu
 62
7
 10
6421038.17
 20
5579205.44
  1
464,78
 40
0.75
 50
50.00
 51
15.00
 41
0.62
  7
SIMPLEX
  0
TEXT
  8
os_profilu
 62
7
 10
6421037.18
 20
5579206.46
  1
464,68
 40
0.75
 50
50.00
 51
15.00
 41
0.62
  7
SIMPLEX
  0
TEXT
  8
os_profilu
 62
7
 10
6421036.06
 20
5579207.38
  1
464,82
 40
0.75
 50
50.00
 51
15.00
 41
0.62
  7
SIMPLEX
  0
TEXT
  8
os_profilu
 62
7
 10
6421034.11
 20
5579208.84
  1
464,75
 40
0.75
 50
50.00
 51
15.00
 41
0.62
  7
SIMPLEX
  0
TEXT
  8
os_profilu
 62
7
 10
6421033.26
 20
5579209.66
  1
464,88
 40
0.75
 50
50.00
 51
15.00
 41
0.62
  7
SIMPLEX
  0
TEXT
  8
os_profilu
 62
7
 10
6421032.43
 20
5579210.49
  1
464,90
 40
0.75
 50
50.00
 51
15.00
 41
0.62
  7
SIMPLEX
  0
TEXT
  8
os_profilu
 62
7
 10
6421031.08
 20
5579211.31
  1
464,80
 40
0.75
 50
50.00
 51
15.00
 41
0.62
  7
SIMPLEX
  0
TEXT
  8
os_profilu
 62
7
 10
6421022.96
 20
5579218.03
  1
462,36
 40
0.75
 50
50.00
 51
15.00
 41
0.62
  7
SIMPLEX
  0
TEXT
  8
os_profilu
 62
7
 10
6421021.94
 20
5579218.66
  1
462,33
 40
0.75
 50
50.00
 51
15.00
 41
0.62
  7
SIMPLEX
  0
TEXT
  8
os_profilu
 62
7
 10
6421021.08
 20
5579219.75
  1
462,24
 40
0.75
 50
50.00
 51
15.00
 41
0.62
  7
SIMPLEX
  0
TEXT
  8
os_profilu
 62
7
 10
6421018.87
 20
5579221.57
  1
461,87
 40
0.75
 50
50.00
 51
15.00
 41
0.62
  7
SIMPLEX
  0
TEXT
  8
os_profilu
 62
7
 10
6421016.49
 20
5579223.28
  1
461,87
 40
0.75
 50
50.00
 51
15.00
 41
0.62
  7
SIMPLEX
  0
TEXT
  8
os_profilu
 62
7
 10
6421013.88
 20
5579225.62
  1
461,67
 40
0.75
 50
50.00
 51
15.00
 41
0.62
  7
SIMPLEX
  0
TEXT
  8
os_profilu
 62
7
 10
6421030.10
 20
5579197.49
  1
464,56
 40
0.75
 50
50.00
 51
15.00
 41
0.62
  7
SIMPLEX
  0
TEXT
  8
os_profilu
 62
7
 10
6421029.46
 20
5579198.09
  1
464,49
 40
0.75
 50
50.00
 51
15.00
 41
0.62
  7
SIMPLEX
  0
TEXT
  8
os_profilu
 62
7
 10
6421028.26
 20
5579198.97
  1
464,60
 40
0.75
 50
50.00
 51
15.00
 41
0.62
  7
SIMPLEX
  0
TEXT
  8
os_profilu
 62
7
 10
6421027.10
 20
5579199.53
  1
464,49
 40
0.75
 50
50.00
 51
15.00
 41
0.62
  7
SIMPLEX
  0
TEXT
  8
os_profilu
 62
7
 10
6421026.14
 20
5579200.37
  1
464,63
 40
0.75
 50
50.00
 51
15.00
 41
0.62
  7
SIMPLEX
  0
TEXT
  8
os_profilu
 62
7
 10
6421025.50
 20
5579201.09
  1
464,63
 40
0.75
 50
50.00
 51
15.00
 41
0.62
  7
SIMPLEX
  0
TEXT
  8
os_profilu
 62
7
 10
6421024.54
 20
5579201.89
  1
464,53
 40
0.75
 50
50.00
 51
15.00
 41
0.62
  7
SIMPLEX
  0
TEXT
  8
os_profilu
 62
7
 10
6421019.22
 20
5579205.33
  1
462,87
 40
0.75
 50
50.00
 51
15.00
 41
0.62
  7
SIMPLEX
  0
TEXT
  8
os_profilu
 62
7
 10
6421017.82
 20
5579206.13
  1
462,83
 40
0.75
 50
50.00
 51
15.00
 41
0.62
  7
SIMPLEX
  0
TEXT
  8
os_profilu
 62
7
 10
6421017.10
 20
5579206.85
  1
462,72
 40
0.75
 50
50.00
 51
15.00
 41
0.62
  7
SIMPLEX
  0
TEXT
  8
os_profilu
 62
7
 10
6421016.18
 20
5579207.49
  1
462,65
 40
0.75
 50
50.00
 51
15.00
 41
0.62
  7
SIMPLEX
  0
TEXT
  8
os_profilu
 62
7
 10
6421015.42
 20
5579208.01
  1
462,40
 40
0.75
 50
50.00
 51
15.00
 41
0.62
  7
SIMPLEX
  0
TEXT
  8
os_profilu
 62
7
 10
6421014.70
 20
5579208.73
  1
462,54
 40
0.75
 50
50.00
 51
15.00
 41
0.62
  7
SIMPLEX
  0
TEXT
  8
os_profilu
 62
7
 10
6421012.90
 20
5579210.05
  1
462,53
 40
0.75
 50
50.00
 51
15.00
 41
0.62
  7
SIMPLEX
  0
TEXT
  8
os_profilu
 62
7
 10
6421021.54
 20
5579183.89
  1
464,35
 40
0.75
 50
50.00
 51
15.00
 41
0.62
  7
SIMPLEX
  0
TEXT
  8
os_profilu
 62
7
 10
6421020.10
 20
5579184.77
  1
464,24
 40
0.75
 50
50.00
 51
15.00
 41
0.62
  7
SIMPLEX
  0
TEXT
  8
os_profilu
 62
7
 10
6421018.82
 20
5579185.25
  1
464,30
 40
0.75
 50
50.00
 51
15.00
 41
0.62
  7
SIMPLEX
  0
TEXT
  8
os_profilu
 62
7
 10
6421012.74
 20
5579184.73
  1
464,04
 40
0.75
 50
50.00
 51
15.00
 41
0.62
  7
SIMPLEX
  0
TEXT
  8
os_profilu
 62
7
 10
6421011.26
 20
5579189.41
  1
463,75
 40
0.75
 50
50.00
 51
15.00
 41
0.62
  7
SIMPLEX
  0
TEXT
  8
os_profilu
 62
7
 10
6421009.38
 20
5579190.25
  1
463,64
 40
0.75
 50
50.00
 51
15.00
 41
0.62
  7
SIMPLEX
  0
TEXT
  8
os_profilu
 62
7
 10
6421008.34
 20
5579190.97
  1
463,75
 40
0.75
 50
50.00
 51
15.00
 41
0.62
  7
SIMPLEX
  0
TEXT
  8
os_profilu
 62
7
 10
6421009.46
 20
5579168.77
  1
464,36
 40
0.75
 50
50.00
 51
15.00
 41
0.62
  7
SIMPLEX
  0
TEXT
  8
os_profilu
 62
7
 10
6421008.50
 20
5579169.65
  1
464,05
 40
0.75
 50
50.00
 51
15.00
 41
0.62
  7
SIMPLEX
  0
TEXT
  8
os_profilu
 62
7
 10
6421006.74
 20
5579170.85
  1
464,05
 40
0.75
 50
50.00
 51
15.00
 41
0.62
  7
SIMPLEX
  0
TEXT
  8
os_profilu
 62
7
 10
6421000.90
 20
5579174.77
  1
463,92
 40
0.75
 50
50.00
 51
15.00
 41
0.62
  7
SIMPLEX
  0
TEXT
  8
os_profilu
 62
7
 10
6421002.18
 20
5579173.97
  1
463,81
 40
0.75
 50
50.00
 51
15.00
 41
0.62
  7
SIMPLEX
  0
TEXT
  8
os_profilu
 62
7
 10
6420983.02
 20
5579130.09
  1
462,31
 40
0.75
 50
50.00
 51
15.00
 41
0.62
  7
SIMPLEX
  0
TEXT
  8
os_profilu
 62
7
 10
6420981.82
 20
5579131.73
  1
462,12
 40
0.75
 50
50.00
 51
15.00
 41
0.62
  7
SIMPLEX
  0
TEXT
  8
os_profilu
 62
7
 10
6420980.22
 20
5579132.97
  1
462,15
 40
0.75
 50
50.00
 51
15.00
 41
0.62
  7
SIMPLEX
  0
TEXT
  8
os_profilu
 62
7
 10
6420977.66
 20
5579135.13
  1
462,18
 40
0.75
 50
50.00
 51
15.00
 41
0.62
  7
SIMPLEX
  0
TEXT
  8
os_profilu
 62
7
 10
6420975.66
 20
5579136.89
  1
462,08
 40
0.75
 50
50.00
 51
15.00
 41
0.62
  7
SIMPLEX
  0
TEXT
  8
os_profilu
 62
7
 10
6420974.82
 20
5579137.81
  1
462,18
 40
0.75
 50
50.00
 51
15.00
 41
0.62
  7
SIMPLEX
  0
TEXT
  8
os_profilu
 62
7
 10
6420973.70
 20
5579138.69
  1
462,23
 40
0.75
 50
50.00
 51
15.00
 41
0.62
  7
SIMPLEX
  0
TEXT
  8
os_profilu
 62
7
 10
6420958.38
 20
5579103.85
  1
459,70
 40
0.75
 50
50.00
 51
15.00
 41
0.62
  7
SIMPLEX
  0
TEXT
  8
os_profilu
 62
7
 10
6420957.22
 20
5579105.37
  1
459,64
 40
0.75
 50
50.00
 51
15.00
 41
0.62
  7
SIMPLEX
  0
TEXT
  8
os_profilu
 62
7
 10
6420956.69
 20
5579106.15
  1
459,65
 40
0.75
 50
50.00
 51
15.00
 41
0.62
  7
SIMPLEX
  0
TEXT
  8
os_profilu
 62
7
 10
6420956.00
 20
5579106.83
  1
459,50
 40
0.75
 50
50.00
 51
15.00
 41
0.62
  7
SIMPLEX
  0
TEXT
  8
os_profilu
 62
7
 10
6420954.36
 20
5579108.08
  1
459,61
 40
0.75
 50
50.00
 51
15.00
 41
0.62
  7
SIMPLEX
  0
TEXT
  8
os_profilu
 62
7
 10
6420952.42
 20
5579109.98
  1
459,52
 40
0.75
 50
50.00
 51
15.00
 41
0.62
  7
SIMPLEX
  0
TEXT
  8
os_profilu
 62
7
 10
6420951.73
 20
5579110.85
  1
459,64
 40
0.75
 50
50.00
 51
15.00
 41
0.62
  7
SIMPLEX
  0
TEXT
  8
os_profilu
 62
7
 10
6420950.77
 20
5579111.72
  1
459,67
 40
0.75
 50
50.00
 51
15.00
 41
0.62
  7
SIMPLEX
  0
TEXT
  8
os_profilu
 62
7
 10
6420936.41
 20
5579085.65
  1
457,40
 40
0.75
 50
45.00
 51
15.00
 41
0.62
  7
SIMPLEX
  0
TEXT
  8
os_profilu
 62
7
 10
6420935.93
 20
5579086.41
  1
457,43
 40
0.75
 50
45.00
 51
15.00
 41
0.62
  7
SIMPLEX
  0
TEXT
  8
os_profilu
 62
7
 10
6420935.17
 20
5579087.13
  1
457,25
 40
0.75
 50
45.00
 51
15.00
 41
0.62
  7
SIMPLEX
  0
TEXT
  8
os_profilu
 62
7
 10
6420933.65
 20
5579088.69
  1
457,36
 40
0.75
 50
45.00
 51
15.00
 41
0.62
  7
SIMPLEX
  0
TEXT
  8
os_profilu
 62
7
 10
6420931.93
 20
5579090.93
  1
457,25
 40
0.75
 50
45.00
 51
15.00
 41
0.62
  7
SIMPLEX
  0
TEXT
  8
os_profilu
 62
7
 10
6420931.29
 20
5579092.09
  1
457,40
 40
0.75
 50
45.00
 51
15.00
 41
0.62
  7
SIMPLEX
  0
TEXT
  8
os_profilu
 62
7
 10
6420930.21
 20
5579093.21
  1
457,42
 40
0.75
 50
45.00
 51
15.00
 41
0.62
  7
SIMPLEX
  0
TEXT
  8
os_profilu
 62
7
 10
6420908.67
 20
5579061.46
  1
453,61
 40
0.75
 50
30.00
 51
15.00
 41
0.62
  7
SIMPLEX
  0
TEXT
  8
os_profilu
 62
7
 10
6420907.91
 20
5579062.42
  1
453,67
 40
0.75
 50
30.00
 51
15.00
 41
0.62
  7
SIMPLEX
  0
TEXT
  8
os_profilu
 62
7
 10
6420904.67
 20
5579068.98
  1
454,07
 40
0.75
 50
30.00
 51
15.00
 41
0.62
  7
SIMPLEX
  0
TEXT
  8
os_profilu
 62
7
 10
6420902.31
 20
5579074.64
  1
453,91
 40
0.75
 50
35.00
 51
15.00
 41
0.62
  7
SIMPLEX
  0
TEXT
  8
os_profilu
 62
7
 10
6420901.87
 20
5579075.60
  1
454,07
 40
0.75
 50
35.00
 51
15.00
 41
0.62
  7
SIMPLEX
  0
TEXT
  8
os_profilu
 62
7
 10
6420900.71
 20
5579077.60
  1
454,02
 40
0.75
 50
35.00
 51
15.00
 41
0.62
  7
SIMPLEX
  0
TEXT
  8
os_profilu
 62
7
 10
6420904.20
 20
5579070.41
  1
ppod
 40
0.90
 50
31.30
 51
15.00
 41
0.62
  7
SIMPLEX
  0
TEXT
  8
os_profilu
 62
7
 10
6421072.12
 20
5579257.75
  1
466,05
 40
0.75
 50
49.10
 51
15.00
 41
0.62
  7
SIMPLEX
  0
ENDSEC
  0
EOF
